Oops, an error
Loading. Please wait.

Epoca De Guerra tab

15 views 1 this week
no commentswrite comment
1 2 3 4 5
3 more votes to show rating
add to favorites
×
Save as Personal and add changes to this tab that will be seen only by you. Learn more ›
×
You can save this tab as Personal to edit and correct it or add notes. All changes will be seen only by you. Learn more »
launch autoscroll
font size
0
reset
how to read this tab
guitar tuner
edit
Autoscroll
slow
fast
+/-
esc
set tempo
stop
E|---------------------|
B|---------------------|
G|-1111-11--101111-11--| X2
D|-X-X--X---X-X-X--X---|
A|-9-9--9---8-9-9--9---|
E|---------------------|

E|-----------------------------------------------------------|
B|-----------------------------------------------------------|
G|-1111111111-9-9-9-9-9-1414141414-9-9-9-9-9--11-12-11-9--7--|
D|-X-X-X-X-X--X-X-X-X-X-X-X-X-X-X--X-X-X-X-X--X--X--X--X--X--|
A|-9-9-9-9-9--7-7-7-7-7-1212121212-7-7-7-7-7--9--10-9--7--5--|
E|-----------------------------------------------------------|

E|---------------------------------------------------|
B|---------------------------------------------------|
G|-1111111111-9-9-9-9-9-1414141414-9-9-9-9-9--77-99--|
D|-X-X-X-X-X--X-X-X-X-X-X-X-X-X-X--X-X-X-X-X--XX-XX--|
A|-9-9-9-9-9--7-7-7-7-7-1212121212-7-7-7-7-7--55-77--|
E|---------------------------------------------------|

D5     A5       B5    G5-A5
Es una epoca de guerra
D5         A5        B5    G5-A5
donde el pueblo va perdiendo
D5       G5         A5
todo por culpa del gobierno
G5   A5      D5    A5    B5   G5-A5
ya el pais se esta humdiendo

D5       A5       B5     G5-A5
Entonces llega la guerrila
D5         A5        B5     G5-A5
con el gobierno quiere acabar
D5        G5        A5
el pueblo en mitad de todos
G5   A5   Riff 1         G5-A5
quiero ver esto terminar


Riff 2
Y ahora me toka a mi

hacer una aclaracion

el caos que etamos viviendo

me causa una desepcion


D5        A5       B5       G5-A5
Que llega al corazon de todos
D5        A5       B5   G5-A5
y que no puedo resistir
D5        G5     A5
ver tanta miseraia
G5  A5    D5     A5    B5     G5-A5
de la que nunca podremos salir


D5      G5
Epoca de luchas
A5        G5  A5
donde el pueblo protesta
D5       G5
cual sera el futuro
A5        G5
cuando parara esta fierta

E|----------------------------------------------------|
B|----------------------------------------------------|
G|-7-7-7-7-7-7-9-9-9-9-9-9-111111111111-121212111111--|
D|-X-X-X-X-X-X-X-X-X-X-X-X-X-X-X-X-X-X--X-X-X-X-X-X---|
A|-5-5-5-5-5-5-7-7-7-7-7-7-9-9-9-9-9-9--1010109-9-9---|
E|----------------------------------------------------|

E|----------------------------------------------------|
B|----------------------------------------------------|
G|-7-7-7-7-7-7-9-9-9-9-9-9-111111111111-12----11---7--|
D|-X-X-X-X-X-X-X-X-X-X-X-X-X-X-X-X-X-X--X-----X----X--|
A|-5-5-5-5-5-5-7-7-7-7-7-7-9-9-9-9-9-9--10----9----5--|
E|----------------------------------------------------|

ACORDES:
E|-----X-----X-----X-----X-----|
B|-----X-----X-----X-----X-----|
G|-----X-----7-----X-----X-----|
D|-----7-----7-----9-----5-----|
A|-----7-----5-----9-----5-----|
E|-----5-----X-----7-----3-----|
       A5    D5    B5    G5

Riff 1:
E|--------------------------------------|
B|--------------------------------------|
G|-7-7-7-7-7-7-9-9-9-9-9-9-111111111111-|
D|-X-X-X-X-X-X-X-X-X-X-X-X-X-X-X-X-X-X--|
A|-5-5-5-5-5-5-7-7-7-7-7-7-9-9-9-9-9-9--|
E|--------------------------------------|

Riff 2: (todo el verso de esta manera)
E|--------------------------------------|
B|--------------------------------------|
G|-7-7-7-7-7-7-7-7-7-7-7-7-7-7-7-7-7-7--|
D|-X-X-X-X-X-X-X-X-X-X-X-X-X-X-X-X-X-X--|
A|-5-5-5-5-5-5-5-5-5-5-5-5-5-5-5-5-5-5--|
E|--------------------------------------|

            
            
Suggest correction
Creating personal tab
Creating personal tab
You can edit any tab online and save it as your Personal.

You can edit, replace or remove any tab part or add personal notes – all changes will be seen only by you.

Personal tabs can be accessed anytime from any device, even offline.
Learn more »
Give kudos to tab author, rate the tab!
1 2 3 4 5
comments
print report bad tab
guest
Wanna post a correction for this tab? Suggest correction