Oops, an error
Loading. Please wait.

Estrato 8 tab

54 views 1 this week
no commentswrite comment
1 2 3 4 5
3 more votes to show rating
add to favorites
×
Save as Personal and add changes to this tab that will be seen only by you. Learn more ›
×
You can save this tab as Personal to edit and correct it or add notes. All changes will be seen only by you. Learn more »
launch autoscroll
font size
0
reset
how to read this tab
guitar tuner
edit
Autoscroll
slow
fast
+/-
esc
set tempo
stop
E|-----------------------------------|
B|-----------------------------------|
G|-----------------------------------|
D|-----------------------------------|
A|-00-7-5h4-5-4-5----00-7-5-4-7-9-7--|
E|-----------------------------------|

E|-----------------------------------|
B|-----------------------------------|
G|-----------------------------------|
D|-----------------------------------|
A|-00-7-5h4-5-4-5----0-0-00000-------|
E|-----------------------------------|

E|--------------------------------------------------------|
B|--------------------------------------------------------|
G|-777777--------777777--------777777--------777777-------|
D|-777777-555555-777777-777777-777777-555555-777777-7-7-7-|
A|-555555-555555-555555-777777-555555-555555-555555-7-7-7-|
E|--------333333--------555555--------333333--------5-5-5-|

D5        G5        D5        A5
No puedo comprender porque todos ya
D5          G5         D5     A5-A5-A5
Viven en una falsa sociedad
D5           G5          D5            A5
Miran siempre a la moda que pronto llevaran
D5            G5          D5    A5-A5-A5
Sin pensar que males les traerá

E|--------------------------------------------------------|
B|--------------------------------------------------------|
G|-777777--------777777--------777777--------777777-------|
D|-777777-555555-777777-777777-777777-555555-777777-7-7-7-|
A|-555555-555555-555555-777777-555555-555555-555555-7-7-7-|
E|--------333333--------555555--------333333--------5-5-5-|

D5        G5        D5        A5
Cuando llegue ya la moda ninguno tendrá
D5          G5         D5     A5-A5-A5
Una personalidad normal
D5           G5          D5            A5
Con cualquier uniforme su ropa lucirá
D5            G5          D5    A5-A5-A5
Para que sea una moda original


CORO:
D5         55
Haaaaaaaaa haaaaaaaaaaa
A5                   G5
No quiero ya vestirme como todos los demás
D5         E5
Haaaaaaaaa haaaaaaaaaaa
A5                 G5
Yo no soy ese tonto que los va a necesitar
D5         E5
Haaaaaaaaa haaaaaaaaaaa
A5                G5
Porque no empiezan a pensar

E|------------------------|
B|------------------------|
G|-7-7-------7-7----------|
D|-7-7--5-5--7-7--7-7--X2-|
A|-5-5--5-5--5-5--7-7-----|
E|------3-3-------5-5-----|

E|--------------------------------------------------------|
B|--------------------------------------------------------|
G|-777777--------777777--------777777--------777777-------|
D|-777777-555555-777777-777777-777777-555555-777777-7-7-7-|
A|-555555-555555-555555-777777-555555-555555-555555-7-7-7-|
E|--------333333--------555555--------333333--------5-5-5-|

D5        G5        D5        A5
Salen por la noche siempre para que los vean
D5          G5         D5     A5-A5-A5
Usando siempre la ropa ideal
D5           G5          D5            A5
Y una gran pelea nunca les puede faltar
D5            G5          D5    A5-A5-A5
Para así crecer su dignidad


CORO:
D5         55
Haaaaaaaaa haaaaaaaaaaa
A5                   G5
No quiero ya vestirme como todos los demás
D5         E5
Haaaaaaaaa haaaaaaaaaaa
A5                 G5
Yo no soy ese tonto que los va a necesitar
D5         E5
Haaaaaaaaa haaaaaaaaaaa
A5                G5
Porque no empiezan a pensar


     D5   G5   A5   E5
E|---X----X----X----X---|
B|---X----X----X----X---|
G|---7----X----X----9---|
D|---7----5----7----9---|
A|---5----5----7----7---|
E|---X----3----5----X---|


ESTA ES UNA DE LAS CANCIONES MAS BACANAS DE CODIGO Y ES RE
FACIL DE TOCAR, COMENTARIOS O MAS CANCIONES DE CODIGO ROJO
ROCKANDRES182@HOTMAIL

            
            
Suggest correction
Creating personal tab
Creating personal tab
You can edit any tab online and save it as your Personal.

You can edit, replace or remove any tab part or add personal notes – all changes will be seen only by you.

Personal tabs can be accessed anytime from any device, even offline.
Learn more »
Give kudos to tab author, rate the tab!
1 2 3 4 5
comments
print report bad tab
guest
Wanna post a correction for this tab? Suggest correction