Oops, an error
Loading. Please wait.

Ignorancia tab

19 views 1 this week
no commentswrite comment
1 2 3 4 5
3 more votes to show rating
add to favorites
×
Save as Personal and add changes to this tab that will be seen only by you. Learn more ›
×
You can save this tab as Personal to edit and correct it or add notes. All changes will be seen only by you. Learn more »
launch autoscroll
font size
0
reset
how to read this tab
guitar tuner
edit
Autoscroll
slow
fast
+/-
esc
set tempo
stop
INTRO:
E|--------------------------------------|
B|--------------------------------------|
G|-77777777-----------------------------| X4
D|-77777777-99999999-55555555-777777777-|
A|-55555555-99999999-55555555-777777777-|
E|----------77777777-33333333-555555555-|

D5                        B5                G5
Hoy recuerdo los regaños que el profesor me dio
                    A5
cuando me equivoque en una respuesta
D5                     B5                 G5
Todos se rieron cuando yo no pude responder
                    A5
cuanto era dos por tres yo no los se

D5
Yo no los se
D5
ho no los se
D5
Yo no los se
E5
y que me importa


CORO:
D5
Pero yo se que mi cerebro
   A5
es aun mas superior
                 E5
que el de todas esas ingratas
       A5
que se rieron de mi
D5
ahora ellos
                 A5
solo piensan en numeros
               E5
pero no son capaces de ver
        A5
la realidad de nuestro mundo


INTERMEDIO:
E|-------------------------------------|
B|-------------------------------------|
G|-77777777----------------------------| X2
D|-77777777-99999999-55555555-7XX-XXXX-|
A|-55555555-99999999-55555555-7XX-XXXX-|
E|----------77777777-33333333-5XX-XXXX-|

E|--------------------------------------|
B|--------------------------------------|
G|-77777777-----------------------------| X2
D|-77777777-99999999-55555555-777777777-|
A|-55555555-99999999-55555555-777777777-|
E|----------77777777-33333333-555555555-|

D5                         B5                G5
Y luego de un tiempo mejore porque al fin pude saber
                     A5
porque al fin pude saber cuanto es dos por uno
D5                     B5
Luego yo mismo pude descubrir
     G5                 A5
cuantos lados tenia un cuadrado


CORO:
D5
Pero yo se que mi cerebro
   A5
es aun mas superior
                 E5
que el de todas esas ingratas
       A5
que se rieron de mi
D5
ahora ellos
                 A5
solo piensan en numeros
               E5
pero no son capaces de ver
        A5
la realidad de nuestro mundo


FINAL:
E|--------------------------------------|
B|--------------------------------------|
G|-77777777-----------------------------|
D|-77777777-99999999-55555555-777777777-| X2
A|-55555555-99999999-55555555-777777777-|
E|----------77777777-33333333-555555555-|

E|-------------------------------------|
B|-------------------------------------|
G|-77777777----------------------7~~-7-|
D|-77777777-99999999-5~~---7~~---7~~-7-| X2
A|-55555555-99999999-5~~---7~~---5~~-5-|
E|----------77777777-3~~---5~~---------|


ACORDES:
E|-----X-----X-----X-----X-----X------|
B|-----X-----X-----X-----X-----X------|
G|-----7-----X-----X-----X-----9------|
D|-----7-----7-----9-----5-----9------|
A|-----5-----7-----9-----5-----7------|
E|-----X-----5-----7-----3-----X------|
       D5    A5    B5    G5    E5

            
            
Suggest correction
Creating personal tab
Creating personal tab
You can edit any tab online and save it as your Personal.

You can edit, replace or remove any tab part or add personal notes – all changes will be seen only by you.

Personal tabs can be accessed anytime from any device, even offline.
Learn more »
Give kudos to tab author, rate the tab!
1 2 3 4 5
comments
print report bad tab
guest
Wanna post a correction for this tab? Suggest correction