Oops, an error
Loading. Please wait.

Mary Jane bass

76 views 1 this week
no commentswrite comment
1 2 3 4 5
3 more votes to show rating
add to favorites
×
Save as Personal and add changes to this tab that will be seen only by you. Learn more ›
×
You can save this tab as Personal to edit and correct it or add notes. All changes will be seen only by you. Learn more »
launch autoscroll
font size
0
reset
guitar tuner
edit
Autoscroll
slow
fast
+/-
esc
set tempo
stop
Intro:
G|----------------------|
D|----------------------|
A|-55----55----5-3-2----|
E|----33----55-------3--|

G|------------------------------------------------------------x4--|
D|----------------------------------------------------------------|
A|---------5-3-7-5--7-5-3-5-3-2-3-2--5-5-5-7-7-7-5/3--5-3-2-------|
E|-2-3-5-3--------------------------------------------------3-----|

?But for now I only want to sleep?
G|-------------------------------------|
D|-------------------------------X2----|
A|-55555555----------55555555----------|
E|----------33333333----------5555555--|

?I want to be insane?
G|--------X5-|------------------------------|
D|-----------|------------------------------|
A|-------5---|------------------------------|
E|-33-55-----|-33-3-33-3-55-5-55-5-55555555-|

G|-------|------------------X2---|------------|-----X3--|------------|
D|-------|-----------------------|------------|---------|------9-7-6-|
A|-33333-|-55-5/7-(9)?99-9/7-(5)-|-55-5/7-(9)-|-6-7-9-7-|-9-11-------|
E|-------|-----------------------|------------|---------|------------|

?This morning I had a dream...?
G|-------------------------------------|
D|-------------------------------X2----|
A|-55555555----------55555555----------|
E|----------33333333----------5555555--|

?But for now I only?   ?I want to know I want to smoke?
G|---------------------|--------------------------------------|
D|------------------X2-|--------------------------------------|
A|-5555------5555------|-55555555----------55555555-----------|
E|------3333------5555-|----------33333333----------55555555--|

G|-------|------------------X2---|------------|-----X3--|------------|
D|-------|-----------------------|------------|---------|------9-7-6-|
A|-33333-|-55-5/7-(9)?99-9/7-(5)-|-55-5/7-(9)-|-6-7-9-7-|-9-11-------|
E|-------|-----------------------|------------|---------|------------|

?Mary Maryjane Mary Mary?
G|-------------------------------------|
D|-------------------------------X4----|
A|-55555555----------55555555----------|
E|----------33333333----------5555555--|

FINAL:
G|----------------------------------|------------------|
D|-------------------------------X3-|------------------|
A|-5-5-5-5---------5-5-5-5----------|-5-5-5-5----------|
E|---------3-3-3-3---------5-5-5-5--|---------5-5-5-5--|

G|--------------------------|
D|--------------------------|
A|-5---------------5--------|
E|-----5---33333------------|

QUIERO FORMAR UNA BANDA DE PUNK EN BOGOTA (NECESITO BATERO Y BAJO)
DUDAD Y ESAS COSAS AL CORREO ROCKANDRES182@

            
            
Suggest correction
Creating personal tab
Creating personal tab
You can edit any tab online and save it as your Personal.

You can edit, replace or remove any tab part or add personal notes – all changes will be seen only by you.

Personal tabs can be accessed anytime from any device, even offline.
Learn more »
Give kudos to tab author, rate the tab!
1 2 3 4 5
comments
print report bad tab
guest
Wanna post a correction for this tab? Suggest correction