Oops, an error
Loading. Please wait.

Mary Jane chords

39 views 3 this week
no commentswrite comment
1 2 3 4 5
3 more votes to show rating
add to favorites
×
Save as Personal and add changes to this tab that will be seen only by you. Learn more ›
×
You can save this tab as Personal to edit and correct it or add notes. All changes will be seen only by you. Learn more »
launch autoscroll
font size
0
reset
transpose
0
reset
simplify chords
display chords
guitar tuner
edit
Autoscroll
slow
fast
+/-
esc
set tempo
stop
Strumming
There is no strumming pattern for this song yet. and get +5 IQ

e|-22-33-00--2-----3-----0-------|
B|-33-33-22----3-----3-----2-----|
G|-22-00-22------------------2---|
D|-00-00-22-0----0-----2-------2-|
A|----22-00----------------------|
E|----33-------------------------|

DDDDD GG  DDDDD AA DDDDD GG DDD AAA [X4]

Hello honey, how are you?
I?m fine thank you I don?t wanna eat,
I only wanna go to sleep, but before
I want to smoke pot, smoke a lot,
I want to see a fucking Cow

D5                 G5                D5              A5
But for now I only want to sleep and stay in another place
      D5
And I want to know I want to smoke you
G5                                 D5       A5
I want to know I want to smoke you maryjane every day
G5     A5    D5       G5           A5     D5
I want to be insane, cause I love you maryjane
G5     A5    D5       G5                           A5
I want to be insane, cause I love you my sweet love maryjane

Riff:
e|---------|---------------------------X2-|--------------------------|
B|---------|------------------------------|--------------------------|
G|-5555555-|-77-7/9-11-----1111-11/9-7----|-77-7/9-11-11111111-99999-|
D|-5555555-|-77-7/9-11-11--1111-11/9-7-7--|-77-7/9-11-11111111-99999-|
A|-3333335-|-55-5/7-9--11--9-9--9-/7-5-7--|-55-5/7-9--9-9-9-9--77777-|
E|---------|-----------9---------------5--|--------------------------|

D5
This morning I had a dream
G5
I was a little bird
D5
And I could fly to another side
A5
I wanna said good bye
D5              G5
But when I got cold and wind
D5          A5
Mary Jane is all that I need now

D5      G5   D5     A5      D5       G5   D5  A5     D5
But for now I only want to sleep and stay in another place
                             G5
And I want to know I want to smoke
                         D5                 A5
I want to know I want to smoke you maryjane smoke you maryjane

Riff:
e|---------|---------------------------X2-|--------------------------|
B|---------|------------------------------|--------------------------|
G|-5555555-|-77-7/9-11-----1111-11/9-7----|-77-7/9-11-11111111-99999-|
D|-5555555-|-77-7/9-11-11--1111-11/9-7-7--|-77-7/9-11-11111111-99999-|
A|-3333335-|-55-5/7-9--11--9-9--9-/7-5-7--|-55-5/7-9--9-9-9-9--77777-|
E|---------|-----------9---------------5--|--------------------------|

D5            G5          D5            A5
Mary Maryjane Mary Mary - Mary Maryjane Mary Mary
D5            G5            D5            A5
Mary Maryjane Mary Maryjane Mary Maryjane Mary Maryjane G0¡

FINAL:
e|------------|--------|-----------|---------|
B|------------|--------|-----------|---------|
G|-00-5-00-4--|-00-4-5-|-00-5-00-4-|-555-444-|
D|------------|--------|-----------|---------|
A|--------X2--|--------|--------X2-|---------|
E|------------|--------|-----------|---------|

e|---------|-----------------------------------------------------|
B|---------|-----------------------------------------------------|
G|-555-444-|-5-7777777-7777777----------77-755-44-422------------|
D|---------|-----------7777777-77777777---------------66-646-46--|
A|------X2-|-----------5555555-77777777--------------------------|
E|---------|-------------------55555555--------------------------|

ACORDES:
e|----2----3----0-----X-----X-----X----|
B|----3----3----2-----X-----X-----X----|
G|----2----0----2-----X-----X-----7----|
D|----0----0----2-----7-----5-----7----|
A|---------2----0-----7-----5-----5----|
E|---------3----------5-----3-----X----|
      D    G    A    A5     G5    D5
Suggest correction
Creating personal tab
Creating personal tab
You can edit any tab online and save it as your Personal.

You can edit, replace or remove any tab part or add personal notes – all changes will be seen only by you.

Personal tabs can be accessed anytime from any device, even offline.
Learn more »
Give kudos to tab author, rate the tab!
1 2 3 4 5
comments
print report bad tab
guest
Wanna post a correction for this tab? Suggest correction