Oops, an error
Loading. Please wait.

No Hemos Muerto tab

8 views 1 this week
no commentswrite comment
1 2 3 4 5
3 more votes to show rating
add to favorites
×
Save as Personal and add changes to this tab that will be seen only by you. Learn more ›
×
You can save this tab as Personal to edit and correct it or add notes. All changes will be seen only by you. Learn more »
launch autoscroll
font size
0
reset
how to read this tab
guitar tuner
edit
Autoscroll
slow
fast
+/-
esc
set tempo
stop
INTRO:

E|-17----14-15~-14-15----|
B|----15--------------15-|
G|-----------------------|
D|-------------------X6--|
A|-----------------------|
E|-----------------------|

E|-17----14-15~-14-15-14-|-------15s17-15---|
B|----15-----------------|-15~~----------14-|
G|-----------------------|------------------|
D|-----------------X6----|------------------|
A|-----------------------|------------------|
E|-----------------------|------------------|

(En este pedazo suena muy bien si intentan improvisar
 un poco con esas las notas)
   C5            G5          A5         F5
E|--------------------------------------------|
B|-1515-15-1515--1715141515--17b-17-15-14-15--|
G|--------------------------------------------|
D|--------------------------------------------|
A|--------------------------------------------|
E|--------------------------------------------|

   C5                   G5              A5     F5
E|---------------------------------------------17v-|
B|-171514------------------------------------------|
G|--------171514-151412--------15-14-12-14-15------|
D|----------------------151412---------------------|
A|-------------------------------------------------|
E|-------------------------------------------------|


A5               F5
hOY estamos aqui tratando de hacerte venir
      A5         C5       G5
buscando el momento preciso
A5 ~~
para mostrarte que no hemos muerto

CORO:
C5               G5
no hemos muerto, no hemos muerto
A5               F5
no hemos muerto, no hemos muerto

E|----------------------------------------|
B|----------------------------------------|
G|-55---------55--------------55----------|
D|-XX-99999---XX-99-7777-99---XX-77-5555--|
A|-33-XXXXX---33-XX-XXXX-XX---33-XX-XXXX--|
E|----77777------77-5555-77------55-3333--|

E|-----------------------------------------------------|
B|-----------------------------------------------------|
G|-----------------------------12119-12119-12119-12119-|
D|-161413-161413-161413-161413-------------------------|
A|-----------------------------------------------------|
E|-----------------------------------------------------|

E|---------------------------------|-17----14-15~-14-15----|
B|---------------------------------|----15--------------15-|
G|-141211-141211-141211-141211-12f-|-----------------------|
D|---------------------------------|-------------------X6--|
A|---------------------------------|-----------------------|
E|---------------------------------|-----------------------|

E|-17----14-15~-14-15-14-|-----|
B|----15-----------------|-15~-|
G|-----------------------|-----|
D|-----------------------|-----|
A|-----------------------|-----|
E|-----------------------|-----|

A5                 F5
Se que estas aqui siento tus dientes crujir
C5 ~~      A5 ~~   G5 ~~      A5
precaucion con tus palabras o dudas de mis ganas
F5               C5
te segui por eso,
G5               A5
construimos como un sueño alguna vez

CORO:
C5               G5
no hemos muerto, no hemos muerto
A5               F5
no hemos muerto, no hemos muerto

E|------17----14-15-14----------17----14-15-14-----|
B|---------15----------15----------15----------15--|
G|-5555--------------------------------------------|
D|-5555--------------------7777--------------------|
A|-3333--------------------7777--------------------|
E|-------------------------5555--------------------|

E|------17----14-15-14--------------------17~~--------|
B|---------15----------15--------14~~-------------15V-|
G|------------------------------------14~~----14~~----|
D|-5555-----------------------------------------------|
A|-5555-----------------------------------------------|
E|-3333-----------------------------------------------|

ACORDES:
E|----X----X----X----X-----------|  ~ = let ring
B|----X----X----X----X-----------|  s = slide
G|----X----X----5----X-----------|  v = vibrato
D|----7----3----5----5-----------|  f = full
A|----7----3----3----5-----------|  b = bend
E|----5----1----X----3-----------|
      A5   F5   C5   G5
Suggest correction
Creating personal tab
Creating personal tab
You can edit any tab online and save it as your Personal.

You can edit, replace or remove any tab part or add personal notes – all changes will be seen only by you.

Personal tabs can be accessed anytime from any device, even offline.
Learn more »
Give kudos to tab author, rate the tab!
1 2 3 4 5
comments
print report bad tab
guest
Wanna post a correction for this tab? Suggest correction