Oops, an error
Loading. Please wait.

Sociedad Suciedad chords

13 views 1 this week
no commentswrite comment
1 2 3 4 5
3 more votes to show rating
add to favorites
×
Save as Personal and add changes to this tab that will be seen only by you. Learn more ›
×
You can save this tab as Personal to edit and correct it or add notes. All changes will be seen only by you. Learn more »
launch autoscroll
font size
0
reset
transpose
0
reset
simplify chords
display chords
guitar tuner
edit
Autoscroll
slow
fast
+/-
esc
set tempo
stop
Strumming
There is no strumming pattern for this song yet. and get +5 IQ
e|-----------------------|--------------|
B|-----------------------|--------------|
G|----------7-777777-X3--|--------------|
D|-8-888888-7-777777-----|-7-5-4--------|
A|-8-888888-5-555555-----|-------5-7-5--|
E|-6-666666--------------|--------------|
     |-pm-|   |-pm-|
e|---------------------------------------------|
B|---------------------------------------------|
G|-33333333-7777-5-7/99999999-7777-9-7/5---X2--|
D|-33333333-7777-5-7/99999999-7777-9-7/5-------|
A|-11111111-5555-3-5/77777777-5555-7-5/3-------|
E|---------------------------------------------|

A#5~
17 años en esta sociedad
A#5     D5         C5
socierdad descalsa de humanos
D5           E5 D5 C5
con ganas de trabajar
A#5     D5      C5      D5
no lo puedo creer pues odio verlo
A#5    D5          C5
porque me pusieron aqui
D5         E5 D5 C5
que diablos es esto
A#5       D5       C5
una socierdad amarga
D5
que no tiene remedio
A#5       D5         C5
comunidad negligente
      D5       E5 D5 C5
que no puedo entenderlo

(puro bajo y bateria)
Yo quiero cambiarla porque no me ayudan
A#5      D5
a mi me parece
C5            D5
algo mas que una locura
A#5         D5           C5
y sin nuestro apoyo que haremos
D5           E5 D5 C5
con toda esta basura
A#5      D5          C5
no habra nadie que mejore
D5            E5 D5 C5
esta vida tan dura

A#5       D5         C5
socierdad, sucierdad
 D5       E5 D5 C5
maldita sociedad

e|-----------------------------------------------|
B|-----------------------------------------------|
G|-33333333-77777777-55555555-77777777-9-7/5-3---|
D|-33333333-77777777-55555555-77777777-9-7/5-3---|
A|-11111111-55555555-33333333-55555555-7-5/3-1---|
E|-----------------------------------------------|

e|-----------------------|----------------|
B|-----------------------|----------------|
G|----------7-777777-X3--|----------------|
D|-8-888888-7-777777-----|-7-5-4----------|
A|-8-888888-5-555555-----|-------5-7-5--5-|
E|-6-666666--------------|----------------|
     |-pm-|   |-pm-|

e|---X---X---X---X---|
B|---X---X---X---X---|
G|---3---7---5---9---|
D|---3---7---5---9---|
A|---1---5---3---7---|
E|---X---X---X---X---|
    A#5  D5  C5  E5

SI BUSCAN TABS DE CHITE O ALGUNOS OTROS GRUPOS COLOMBIANOS
ESCRIBANME AL CORREO ROCKANDRES182@

            
            
Suggest correction
Creating personal tab
Creating personal tab
You can edit any tab online and save it as your Personal.

You can edit, replace or remove any tab part or add personal notes – all changes will be seen only by you.

Personal tabs can be accessed anytime from any device, even offline.
Learn more »
Give kudos to tab author, rate the tab!
1 2 3 4 5
comments
print report bad tab
guest
Wanna post a correction for this tab? Suggest correction