Oops, an error
Loading. Please wait.

Torero tab

47 views 1 this week
no commentswrite comment
1 2 3 4 5
3 more votes to show rating
add to favorites
×
Save as Personal and add changes to this tab that will be seen only by you. Learn more ›
×
You can save this tab as Personal to edit and correct it or add notes. All changes will be seen only by you. Learn more »
launch autoscroll
font size
0
reset
how to read this tab
guitar tuner
edit
Autoscroll
slow
fast
+/-
esc
set tempo
stop
INTRO:
E|--------------------------------------------------------------------|
B|--------------------------------------------------------------------|
G|-77-7777---------------------------77-7777---------9-9999-911111111-|
D|-77-7777-77-7777-66-6666-44444444--77-7777-77-7777-9-9999-911111111-|
A|-55-5555-77-7777-66-6666-44444444--55-5555-77-7777-7-7777-79-9-9-9--|
E|---------55-5555-44-4444-22222222----------55-5555------------------|
      |pm|    |pm|    |pm|              |pm|    |pm|   |pm|

E|----------------------------------------------------------------|
B|----------------------------------------------------------------|
G|----------------------------------------------------------------|
D|-7-7-77--------------------------7-7-77----------9-7-676--------|
A|--------9-7---7-7-676-9--7p9------------7s9-7------------9--7p9-|
E|----------------------------------------------------------------|

E|----------------------------------------------------------------|
B|---------------------------------10-10-1010-9------11f-11f-11f--|
G|--------------9-9-89s11--9p11-----------------9---9-------------|
D|-7-7-77---------------------------------------------------------|
A|--------9-7-----------------------------------------------------|
E|----------------------------------------------------------------|


D5   A5
Torero
G#5        F#5
ahora deves salir
D5         A5        E5         F#m5
al kampo de batalla donde vaz a morir


D5   A5
Mirate
G#5        F#5
ahora estas ahy,
D5         A5        E5         F#m5
kon tu gran espada,el toro sin mas nada,


D5            E5               A5   G#5-A5
Ve la sangre de su espalda arder,
D5          E5          A5   G#5-A5
y luego sus ojos retorcer,
D5            E5        A5    G#5    F#5
y solo sueñas kon matar al toro y pensar
D5               E5         A5
ke por la puerta grande tu saldras


D5   A5
Torero,
G#5        F#5
mira la graderia
D5         A5        E5         F#m5
los ke a ti te alaban son una porkeria


D5   A5
Torero
G#5        F#5
espero ke algun dia,
D5         A5        E5         F#m5
te klaves la espada y sientas armonia,


D5           E5               A5   G#5-A5
Por ke en el infierno tu estaras,
D5           E5         A5   G#5-A5
y vaz a torear a satanas
D5             E5       A5   G#5   F#5
y si algun dia le ganas te llenara de balas
D5                E5               A5
por ke el tambien te odio sin kompasion
D5                E5               A5
por ke el tambien te odio sin kompasion


ACORDES:
E|-----X-----X-----X-----X-----X-----X-----|
B|-----X-----X-----X-----X-----X-----X-----|
G|-----7-----X-----X-----X-----9-----11----|
D|-----7-----7-----6-----4-----9-----11----|
A|-----5-----7-----6-----4-----7-----9-----|
E|-----X-----5-----4-----2-----X-----X-----|
       D5    A5   G#5   F#5    E5   F#m5

            
            
Suggest correction
Creating personal tab
Creating personal tab
You can edit any tab online and save it as your Personal.

You can edit, replace or remove any tab part or add personal notes – all changes will be seen only by you.

Personal tabs can be accessed anytime from any device, even offline.
Learn more »
Give kudos to tab author, rate the tab!
1 2 3 4 5
comments
print report bad tab
guest
Wanna post a correction for this tab? Suggest correction