Oops, an error
Loading. Please wait.

Recuerdos En Mi Cajón tab

by Colchon
26 views 1 this week
no commentswrite comment
1 2 3 4 5
3 more votes to show rating
add to favorites
×
Save as Personal and add changes to this tab that will be seen only by you. Learn more ›
×
You can save this tab as Personal to edit and correct it or add notes. All changes will be seen only by you. Learn more »
launch autoscroll
font size
0
reset
how to read this tab
guitar tuner
edit
Autoscroll
slow
fast
+/-
esc
set tempo
stop
ESTA CANCION M GUSTA MUCHO Y LA VERDAD ESTA MUY FACIL
ESPERO LES GUSTE
ESTA CANCION NISIKIERA ES DE COLCHON ES DE BYE SAMY
PERO HABIA 15 PETICIONES EN LAS PETICIONES DE COLCHON ASI Q AKI SE LAS DEJO

  C                             G
e-0-0--0-0-0-0-0-0--0-0--0-0-0-0-0-0--3-3--3-3-3-3-3-3--3-3--3-3-3-3-3-3-
B-1-1--1-1-1-1-1-1--1-1--1-1-1-1-1-1--3-3--3-3-3-3-3-3--3-3--3-3-3-3-3-3-
G-0-0--0-0-0-0-0-0--0-0--0-0-0-0-0-0--0-0--0-0-0-0-0-0--0-0--0-0-0-0-0-0-
D-2-2---------------2-2---------------0-0---------------0-0--------------
A-3-3---------------3-3---------------2-2---------------2-2--------------
E-3-3---------------3-3---------------3-3---------------3-3--------------

  Am
e-0-0--0-0-0-0-0-0--0-0--0-0-0-0--0-0--0-0-0-0-0-0---------------------
B-1-1--1-1-1-1-1-1--1-1--1-1-1-1--0-0--0-0-0-0-0-0---------------------
G-2-2--2-2-2-2-2-2--2-2--2-2-2-2--0-0--0-0-0-0-0-0---------------------
D-2-2---------------2-2-----------2-2-----------------3333333-5555555--
A-0-0---------------0-0-----------2-2-----------------3333333-5555555--
E-0-0---------------0-0-----------0-0-----------------1111111-3333333--

INTRO:
C-G-Am-Em-F-C

C              G
La otra noche yooo ,
                 Am
enconte en mi cajon
              Em
todas esas cartas
          F
ke tu me diste
          C
alguna veeez
                G
en las ke me desias
             Am
cuanto me kerias
            Em
y ke nunca podrias
      F        C
tu vivir sin miii
             G
y ahora ke paso
             Am
ya todo termino
            Em
y solo kedaron esos
   F              C
recuerdos en mi cajon
                  G
recuerdos en mi cajon,
         Am
y mi corazon
               Em
aun sigue esperando
   F           C
a ke regreses tu.

C                  G
Y llevo tantas noches
            Am
sin poder dormir
                Em
porke todo el tiempo
     F            C
yo solo pienso en ti
                   G
tu eres todo para mi
             Am
y mi vida entera
                   Em      F
te entregaria yo a ti
C             G
y ahora ke paso
             Am
ya todo termino
            Em
y solo kedaron esos
  F                C
recuerdos en mi cajon
                   G
recuerdos en mi cajon ,
         Am
y mi corazon
          Em
sigue esperando
   F           C
a ke regreses hoy.

 C
Andrea
              G
si te volviera conoser
           Am
me enamoraria de ti
            Em        F
una y otra vez !!!
C             G
y ahora ke paso !!!
            Am
ya todo termino !!!
            Em
y solo kedaron esos
   F               C
recuerdos en mi cajon
                   G
recuerdos en mi cajon ,
          Am
y mi corazon
           Em
sigue esperando
  F            C
a ke regreses hoy

         G
Mi corazon ! ! !

C                    G                  Am
Cuando yo te kiera recordar ,voi abrir ese cajon
           Em                 G
porke eres tu mi primer gran amor.

ESO ES TODO LA NETA ESTA FACIL
DUDAS O COMENTARIOS AHÍ ESTA MI CORREO
GUERRERODESANGRE_2@
CAMARA ADIOS
Y Q VIVA LA MUSICA EN ESPAÑOL!!!!!!

            
            
Suggest correction
Creating personal tab
Creating personal tab
You can edit any tab online and save it as your Personal.

You can edit, replace or remove any tab part or add personal notes – all changes will be seen only by you.

Personal tabs can be accessed anytime from any device, even offline.
Learn more »
Give kudos to tab author, rate the tab!
1 2 3 4 5
comments
print report bad tab
guest
Wanna post a correction for this tab? Suggest correction