Oops, an error
Loading. Please wait.

Sin Tí tab

version 1
version 1

Whole song

by Colchon
31 views 1 this week
no commentswrite comment
1 2 3 4 5
3 more votes to show rating
add to favorites
×
Save as Personal and add changes to this tab that will be seen only by you. Learn more ›
×
You can save this tab as Personal to edit and correct it or add notes. All changes will be seen only by you. Learn more »
launch autoscroll
font size
0
reset
how to read this tab
guitar tuner
edit
Autoscroll
slow
fast
+/-
esc
set tempo
stop
Ke rock karnalitoz, poez aka lez traigo otro puntero de colchon esta vez
es la rola ?Sin Ti? ezpero i lez lata ezta rolita nu ez naa difícil i va
dedikada a loz BROS. Ke me han escrito a mi correo i me han hesho zentir
mui mien zuz kritikaz a miz transkripzionez wiii, ze lez agradeze en el
alma ezperando me korrigan zi kometo un error, Tambien va dedikada a mis
primoz ke aunke avezez zean alwo ogts konmiwo loz kiero un putero.
Es la pura guitarra 1

(x#)= VECES KE SE REPITE   [#x] = PM en traste indicado  (x)= no se toca

INTRO:

E|-------------------------------------------------------------|
B|-------------------------------------------------------------|
G|-------------------------------------------------------------|
D|---3-3-2-2---3-3-2-2---3-3-2-2---3-3-2-2---3-3-2-2---3-3-2-2-|
A|-3---------3-----------------------------3---------3---------|
E|---------------------3---------3-----------------------------|

E|-------------------|
B|-------------------|
G|-2-0---0-----------| (x2)
D|-----3---3-2-3-0---|
A|-----------------3-|
E|-------------------|

Hace tiempo ke te vi, tu sonrisa sin igual??

   C5
E|--x-------|
B|--x-------|
G|--5-------| 

            
            
Suggest correction
Creating personal tab
Creating personal tab
You can edit any tab online and save it as your Personal.

You can edit, replace or remove any tab part or add personal notes – all changes will be seen only by you.

Personal tabs can be accessed anytime from any device, even offline.
Learn more »
Give kudos to tab author, rate the tab!
1 2 3 4 5
comments
print report bad tab
guest
Wanna post a correction for this tab? Suggest correction