Oops, an error
Loading. Please wait.

Sin Tí tab

version 2
version 2

Whole song

by Colchon
32 views 3 this week
no commentswrite comment
1 2 3 4 5
3 more votes to show rating
add to favorites
×
Save as Personal and add changes to this tab that will be seen only by you. Learn more ›
×
You can save this tab as Personal to edit and correct it or add notes. All changes will be seen only by you. Learn more »
launch autoscroll
font size
0
reset
how to read this tab
guitar tuner
edit
Autoscroll
slow
fast
+/-
esc
set tempo
stop
Va esta tab q esta no nada mas entendible que las otras!!!
si no q ademas esta mas seniclla de entender y corregi
un error del intro. Y les explico el rasgueo de lo pm

pm... PALM MUTE (Solo los puntitos)
~ dejar sonar
Pick up slide, este se ace pasando la plumilla
         desde abajo asta arriba en forma de slide

intro:
e|-----------------|----------------|---------------|-------------|
b|-----------------|----------------|---------------|-------------|
G|-----------------|----------------|---------------|-------------|
D|---3-3-2-2--(x2)-|---3-3-2-2-(x2)-|---3-3-2-2-(x2)|-2-3-5-3-2-3-| x2
A|3-3--------------|----------------|3-3------------|-------------|todo
E|-----------------|3-3-------------|---------------|-------------|

e|-------|
B|-------|
G|-------| pick up slide
D|-/////-|
A|-/////-|
E|-/////-|

Verso 1:
e|----------|
B|----------|
G|-5~~~-----|
D|-5~~~-----|
A|-3~~~-----|
E|----------|
C5
Hace tiempo que te ví

tu sonrisa sin igual

no la puedo olvidar.

Verso 2:
e|-------------------------------------------------------|
B|-------------------------------------------------------|
G|-5-5555555---------------------------------------------|
D|-5-5555555--5-55555555--7-77777777--3--3333333333------|
A|-3-3333333--5-55555555--7-77777777--3--3333333333------|
E|------------3-33333333--5-55555555--1--1111111111------|
pm    ......     .......     .......     ...........
C5                G5
Llevo dentro de mi
                  A5
tu forma de sonreir
            F5
me hace pensar

Interlude 1:
e|-----------------|----------------|---------------|-------------|
b|-----------------|----------------|---------------|-------------|
G|-----------------|----------------|---------------|-------------|
D|---3-3-2-2--(x2)-|---3-3-2-2-(x2)-|---3-3-2-2-(x2)|-2-3-5-3-2-3-|
A|3-3--------------|----------------|3-3------------|-------------|
E|-----------------|3-3-------------|---------------|-------------|

Verso 3:
e|-----------------------------------------------------------|
B|-----------------------------------------------------------|
G|-5-5555555-------------------------------------------------|
D|-5-5555555--5-55555555--7-77777777--3--3333333333-3-3-3-3--|
A|-3-3333333--5-55555555--7-77777777--3--3333333333-3-3-3-3--|
E|------------3-33333333--5-55555555--1--1111111111-1-1-1-1--|
pm   .......    ........    ........     ..........
C5                      G5
Se me va el día en imaginar
               A5         F5
tomarte de la mano, caminar.

Verso 4:
e|----------------------------------------------------|
B|----------------------------------------------------|
G|-5-5555555------------------------------------------|
D|-5-5555555--5-55555555--7-77777777--3--3333333333---|
A|-3-3333333--5-55555555--7-77777777--3--3333333333---|
E|------------3-33333333--5-55555555--1--1111111111---|
C5                G5
Por un rumbo avanzar,
                 A5                     F5
sin siquiera pensar en lo que podría pasar.

Coro: (se toca lo mismo en todos los coros)
e|----------------------------------------------------|
B|----------------------------------------------------|
G|-5-5555555------------------------------------------|
D|-5-5555555--5-55555555--7-77777777--3--3333333333---| x 2
A|-3-3333333--5-55555555--7-77777777--3--3333333333---|
E|------------3-33333333--5-55555555--1--1111111111---|
C5          G5                A5       F5
Hay algo en mí que grita por tí,
C5          G5                A5      F5
despierta y ve que estoy aquí,
        C5
sin tí.

solo
e|---------|---------|---------|
b|---------|---------|---------|
G|-----5---|---------|---------|
D|---5---5-|-----5---|-----7---|
A|-3-------|---5---5-|---7---7-|
E|---------|-3-------|-5-------|

C5           G5               A5     F5
Hay algo en mí que grita por tí,
C5           G5              A5    F5
despierta y ve que estoy aquí,
       C5
sin tí.

  C5          G5               A5     F5
Hay algo en mí que grita por ti,

(esto se toca sobre la letra de la canción y
al mismo tiempo q la guitarra que rasguea acordes.)
e|-----------------|----------------|---------------|-------------|
b|-----------------|----------------|---------------|-------------|
G|-----------------|----------------|---------------|-------------| x2
D|---3-3-2-2--(x2)-|---3-3-2-2-(x2)-|---3-3-2-2-(x2)|-2-3-5-3-2-3-| todo
A|3-3--------------|----------------|3-3------------|-------------|
E|-----------------|3-3-------------|---------------|-------------|
   C5         G5            A5        F5
despierta y ve que estoy aquí,
    C5
sin tí

Esta va pa toda la banda de colchon. jejeje

            
            
Suggest correction
Creating personal tab
Creating personal tab
You can edit any tab online and save it as your Personal.

You can edit, replace or remove any tab part or add personal notes – all changes will be seen only by you.

Personal tabs can be accessed anytime from any device, even offline.
Learn more »
Give kudos to tab author, rate the tab!
1 2 3 4 5
comments
print report bad tab
guest
Wanna post a correction for this tab? Suggest correction