Oops, an error
Loading. Please wait.

Tan Lejos De Mí tab

by Colchon
30 views 1 this week
no commentswrite comment
1 2 3 4 5
3 more votes to show rating
add to favorites
×
Save as Personal and add changes to this tab that will be seen only by you. Learn more ›
×
You can save this tab as Personal to edit and correct it or add notes. All changes will be seen only by you. Learn more »
launch autoscroll
font size
0
reset
how to read this tab
guitar tuner
edit
Autoscroll
slow
fast
+/-
esc
set tempo
stop
ESTA CANCION TAMBIEN ESTA MUY WENA,HAY PERSONAS
QUE KERIAN EL TAB ASI QUE AKI LO TIENEN
ESCUCHEN BIEN LA CANCION PARA QUE LLEVEN EL RITMO. SUERTE!
CUALKIER DUDA MI MSN ES: simplemente_edu_777@

TUNING ESTANDAR - EBGDAE

///////////////////////////
/                         /
/ h  - hammer-on          /
/ ~  - vibrato            /
/ .  - paml mute          /
/                         /
///////////////////////////


INTRO
0:00

E|-------------------------------------------|
B|-------------------------------------------|
G|-------------------------------------------|
D|-------------------------------------------|
A|--5555555-0-4444444-0-22222222-000000000---|
E|-------------------------------------------|


ESTROFA

0:14
TE RECUERDO ASI...
E|-------------------------------------------|
B|-------------------------------------------|
G|-------------------------------------------|
D|-------------------------------------------|X2
A|--5555555-0-4444444-0-22222222-000000000---|
E|-------------------------------------------|


CORO
0:38
EL ULTIMO ADIOS....

               ////////X4//////////
E|------------|--------------------|-----------|
B|------------|--------------------|-----------|
G|---9-11-12--|--------------------|-----------|
D|---9-11-12--|-555--777--999--777-|--5~---7~--|
A|---7-9--10--|-555--777--999--777-|--5~---7~--|
E|------------|-333--555--777--555-|--3~---5~--|


ESTROFA
1:14

E|--------------------------------------|
B|--------------------------------------|
G|--------------------6----6----6-------|
D|--------------------6----6----6-------|
A|--5555555-0-4444444-4-44-4-44-4-0-----|
E|--------------------------------------|
    ....... . .......   ..   ..   .


E|-----------------------------------------------|
B|-----------------------------------------------|
G|-----------4----4----4----------2----2----2----|
D|-----------4----4----4----------2----2----2----|
A|--22222222-2-22-2-22-2-00000000-0-00-0-00-0-0--|
E|-----------------------------------------------|
    ........   ..   ..   ........   ..   ..   .


1:28
TODO POR CALLAR....
E|-----------------------------------------------|
B|-----------------------------------------------|
G|-----------7----7----7----------6----6----6----|
D|-----------7----7----7----------6----6----6----|
A|--55555555-5-55-5-55-5-0-444444-4-44-4-44-4-0--|
E|-----------------------------------------------|
    ........   ..   ..   . ......   ..   ..   .

E|-----------------------------------------------|
B|-----------------------------------------------|
G|-----------4----4----4----------2----2----2----|
D|-----------4----4----4----------2----2----2----|
A|--22222222-2-22-2-22-2-00000000-0-00-0-00-0-0--|
E|-----------------------------------------------|
    ........   ..   ..   ........   ..   ..   .


1:42
HOY QUISIERA QUE FUERA AYER...
E|-----------------------------------------------|
B|-----------------------------------------------|
G|-----------7----7----7----------6----6----6----|
D|-----------7----7----7----------6----6----6----|
A|--55555555-5-55-5-55-5-0-444444-4-44-4-44-4-0--|
E|-----------------------------------------------|
    ........   ..   ..   . ......   ..   ..   .


E|----------------------------------|
B|----------------------------------|
G|-----------4----4----4------------|
D|-----------4----4----4------------|
A|--22222222-2-22-2-22-2-00000000---|
E|----------------------------------|
    ........   ..   ..   ........


CORO
1:53
               /////////X4/////////
E|------------|--------------------|----------------|
B|------------|--------------------|----------------|
G|---9-11-12--|--------------------|------------7~--|
D|---9-11-12--|-555--777--999--777-|--5~---7~---7~--|
A|---7-9--10--|-555--777--999--777-|--5~---7~---5~--|
E|------------|-333--555--777--555-|--3~---5~-------|


INTERLUDE
2:30

E|----------------------------------------|
B|----------------------------------------|
G|-----7---7---7---7-----6---6---6---6----|
D|----------------------------------------|
A|---5---5---5---5---0-4---4---4---4---0--|
E|----------------------------------------|


E|--------------------------------------|
B|--------------------------------------|
G|-----4---4---4---4---2---2---2---2----|
D|--------------------------------------|
A|---2---2---2---2---0---0---0---0---0--|
E|--------------------------------------|


TE RECUERDO ASI...
2:43
                                           -|
E|----------------------------------------| |
B|----------------------------------------| |
G|-----7---7---7---7-----6---6---6---6----| |
D|----------------------------------------| |
A|---5---5---5---5---0-4---4---4---4---0--| |
E|----------------------------------------| |
                                            |
                                            |X2
E|--------------------------------------|   |
B|--------------------------------------|   |
G|-----4---4---4---4---2---2---2---2----|   |
D|--------------------------------------|   |
A|---2---2---2---2---0---0---0---0---0--|   |
E|--------------------------------------|   |
                                           -|

E|-------------------|
B|-------------------|
G|-----7777777-------|
D|-----7777777-------|
A|-----5555555-------|
E|-------------------|
       .......


CORO
3:09
               /////////X4/////////
E|------------|--------------------|-----------|
B|------------|--------------------|-----------|
G|---9-11-12--|--------------------|-----------|
D|---9-11-12--|-555--777--999--777-|--5~---7~--|
A|---7-9--10--|-555--777--999--777-|--5~---7~--|
E|------------|-333--555--777--555-|--3~---5~--|


SOLO
3:44

E|-----------------------------------------------------|
B|-----------------------------------------------------|
G|--6h7-6-6-6h7-6-6-6h7-7---99999-111111-1212121212-11-| X2
D|-----------------------------------------------------|
A|-----------------------------------------------------|
E|-----------------------------------------------------|


//////////////X3//////////////
E|----------------------------|--------------------------|
B|---5h7-7777-5h7-7777-5h7-7--|--88888-7777-55555-33333--|
G|----------------------------|--------------------------|
D|----------------------------|--------------------------|
A|----------------------------|--------------------------|
E|----------------------------|--------------------------|

//////////////X3//////////////
E|----------------------------|--------------------------|
B|---5h7-7777-5h7-7777-5h7-7--|--88888-7777-55555-33333--|
G|----------------------------|--------------------------|
D|----------------------------|--------------------------|
A|----------------------------|--------------------------|
E|----------------------------|--------------------------|


4:37
HOY QUIERO DECIRTE...
E|-----------------------------------------------------|
B|-----------------------------------------------------|
G|-----------------------------------------------7~----|
D|---555-777-999-777-555-777-999-777-5~----7~----7~----|
A|---555-777-999-777-555-777-999-777-5~----7~----5~----|
E|---333-555-777-555-333-555-777-555-3~----5~----------|


FIN...
Suggest correction
Creating personal tab
Creating personal tab
You can edit any tab online and save it as your Personal.

You can edit, replace or remove any tab part or add personal notes – all changes will be seen only by you.

Personal tabs can be accessed anytime from any device, even offline.
Learn more »
Give kudos to tab author, rate the tab!
1 2 3 4 5
comments
print report bad tab
guest
Wanna post a correction for this tab? Suggest correction