Oops, an error
Loading. Please wait.

Anoche Te Pillé Durmiendo tab

14 views 1 this week
no commentswrite comment
1 2 3 4 5
3 more votes to show rating
add to favorites
×
Save as Personal and add changes to this tab that will be seen only by you. Learn more ›
×
You can save this tab as Personal to edit and correct it or add notes. All changes will be seen only by you. Learn more »
launch autoscroll
font size
0
reset
how to read this tab
guitar tuner
edit
Autoscroll
slow
fast
+/-
esc
set tempo
stop
Intro:
Segunda guitarra arpegios en:
DO - Am - RE - SOL
DO - Am - RE - RE

Primera guitarra:
E---0-0-2-2-3-0------------0-0-2-2-----------
B-1-------------1-1----3-3---------3-3-0-0---
G--------------------2-----------------------
  DO            Am     RE             SOL

E-----------0-0--------------------------------
B---1-1-3-3-----1-1------1-0-1-0-1-0-1-0-1-0---
G-0-----------------2-2----------------------2-
  DO              Am    RE

Estrofa:

DO                Am
Anoche te pillé durmiendo
 RE                       SOL
no quise quise quise molestarte
DO                           Am
las cosas que tú sueñas yo también las sueño
  RE
y tus respiraciones yo también las escucho

Anoche te pillé durmiendo
yo quise quise quise estar contigo
me acerco a tu cama y te toco
y tus respiraciones me sanaron

Coro:

DO       RE       SOL
Hay una cosa que nunca te pregunté
DO                     RE
que como como como como fuiste a caer
    SOL
en el mismo lugar que ya caíste otra vez

Interludio:

E-----0-2-3-0---------0-2-3-0---------0-2-3-0------------------3-0--------
B-1-3---------3-2-1-3---------3-2-1-3---------3-2----0-0---3--------------
G--------------------------------------------------0-----0---0------------

E-----0-2-3-0---------0-2-3-0---------0-2-3-0------3-------
B-1-3---------3-2-1-3---------3-2-1-3---------3-2----------
G----------------------------------------------------------


Estrofa:

Anoche te pillé durmiendo
quise quise quise ir a tocarte
las cosas que tú sueñas yo también las sueños
y tus respiraciones yo también las escucho

Anoche te pillé durmiendo
yo quise quise quise estar contigo
me acerco a tu cama y te toco
y tus respiraciones me sanaron

Coro:

Hay una cosa que nunca te pregunté
que como como como como fuiste a caer
en el mismo lugar que ya caíste otra vez

Hay una cosa que nunca te pregunté
que como como como como fuiste a caer
en el mismo lugar que ya caíste otra vez

            
            
Suggest correction
Creating personal tab
Creating personal tab
You can edit any tab online and save it as your Personal.

You can edit, replace or remove any tab part or add personal notes – all changes will be seen only by you.

Personal tabs can be accessed anytime from any device, even offline.
Learn more »
Give kudos to tab author, rate the tab!
1 2 3 4 5
comments
print report bad tab
guest
Wanna post a correction for this tab? Suggest correction