Oops, an error
Loading. Please wait.

Hace Casi 2000 Años chords

100 views 1 this week
no commentswrite comment
1 2 3 4 5
3 more votes to show rating
add to favorites
×
Save as Personal and add changes to this tab that will be seen only by you. Learn more ›
×
You can save this tab as Personal to edit and correct it or add notes. All changes will be seen only by you. Learn more »
launch autoscroll
font size
0
reset
transpose
0
reset
display chords
guitar tuner
edit
Autoscroll
slow
fast
+/-
esc
set tempo
stop
Strumming
There is no strumming pattern for this song yet. and get +5 IQ
Hace casi 2000 años
-------------------

e---0---0--------------------------
B---0---2--------------------------
G---0---2--------------------------
D---0---2--------------------------
A---0---0-------7-9-7----------7---
E---0---0---7-7-------10--7--5---5-

e-------------------------------------
B-------------------------------------
G-------------------------------------
D-------------------------------------
A------5------7------7-9-7--------7---
E---3-3-3~~5-5-5~~7-7-----10-7--5---5-
      G     A     B


G A B A

A         B
No puede ser
G           A          B
que con agua se lave la sangre
G           A          B
pero si lo estoy notando,
G           A          B
vale decir que ya no se ira
G           A          B
el, el, el, el que nos ha tocado
G           A          B
hace casi,hace casi 2000 años
G           A          B
que pienso, que pienso lo mismo
G           A          B
recien me doy cuenta
G           A          B
que no hay que pensar

~=slide

            
            
Suggest correction
Creating personal tab
Creating personal tab
You can edit any tab online and save it as your Personal.

You can edit, replace or remove any tab part or add personal notes – all changes will be seen only by you.

Personal tabs can be accessed anytime from any device, even offline.
Learn more »
Give kudos to tab author, rate the tab!
1 2 3 4 5
comments
print report bad tab
guest
Wanna post a correction for this tab? Suggest correction