Oops, an error
Loading. Please wait.

Hace Casi 2000 Años bass

86 views 3 this week
no commentswrite comment
1 2 3 4 5
3 more votes to show rating
add to favorites
×
Save as Personal and add changes to this tab that will be seen only by you. Learn more ›
×
You can save this tab as Personal to edit and correct it or add notes. All changes will be seen only by you. Learn more »
launch autoscroll
font size
0
reset
guitar tuner
edit
Autoscroll
slow
fast
+/-
esc
set tempo
stop
Tengan sumo cuidado con la afinación, la canción parece no estar
en el A 440
tradicional.
El bajo exactamente a los 0:53 de empezado el tema, con este riff.

G|--------|
D|--------|
A|--------|
E|-4-6-8--|(x4)

G|-------|
D|-------|
A|-------|
E|-12s---|

Después del rulo de bateria acompañando a la guitarra

G|-------------------------------------|
D|-------------------------------------|
A|-----6-----8-------8h10p8--------6---|
E|-4-4---6-6---6-8-8--------11-8-8---8-|(x14)

Puente

G|-----------------------------------------|
D|-----------------------------------------|
A|---6-----8-------8h10p8------8h10p8------|
E|-4---6-6---6-8-8--------11-8--------11-8-|

Intervalo (voces femeninas)

G|---6-5-6--|
D|-8--------|
A|----------|
E|----------|(x12)

G|---6-5-6---6-5-6---------|
D|-7------7----------------|
A|-------------------------|
E|-----------------6-6-6-6-|

G|-------|
D|-------|
A|-4-6-8-|
E|-------|

G|-------|      G|---------------|
D|-------|      D|---------------|
A|-------|      A|---------------|
E|-6-6-6-|(x6)  E|-4-4-4-6-6-6-6-|

G|-------|
D|-------|
A|-4-6-8-|
E|-------|

G|----------------------------------------|
D|----------------------------------------|
A|----------------8h10p8------8h10p8------|
E|-4-6-8--4-6-8-8--------11-8--------11-8-|

G|--------|
D|--------|
A|--------|
E|-4-6-8--|(x3)

G|----------3-5--|
D|---3-5--6------|
A|-6-------------|
E|---------------|(x7)

G|--------------|
D|---3-5--------|
A|-6---------3--|
E|-------4-6----|

G|--------|
D|--------|
A|--------|
E|-4-6-8--|(x12)

Vuelta al riff principal después de las voces (6:55')

G|-------|
D|-------|
A|-------|
E|-12s---|

G|---------------------------------------|
D|---------------------------------------|
A|-----6-----8-------8h10p8----------6---|
E|-4-4---6-6---6-8-8--------11-8-6s8---8-|(x2)

Variación del bajo

G|-------------------10h12p10------------------|
D|----------------------------13-10-8----------|
A|-----6-----8------------------------10-8-6---|
E|-4-4---6-6---6-8-8-------------------------8-|

G|---------------------------------------|
D|---------------------------------------|
A|-----6-----8-------8h10p8----------6---|
E|-4-4---6-6---6-8-8--------11-8-6s8---8-|

G|-----------------------------------------|
D|-----------------------------------------|
A|---6-----8-------8h10p8------8h10p8------|
E|-4---6-6---6-8-8--------11-8--------11-8-|

G|---------------------------------------|
D|---------------10-----------------10---|
A|-8h10p8-------------8h10p8-------------|
E|--------11-8-8----8--------11-8-8----8-|

G|-----------------------------------|
D|-----------------------------------|
A|-8h10p8----8h10p8----8h10p8--------|
E|--------11--------11--------11--9*-|  *: sostener

Final

G|---------------------|
D|---------------------|
A|---------------------|
E|-8-8-8-8-8-8-8-8---8-|

Comentario, dudas, etc visiten 

            
            
Suggest correction
Creating personal tab
Creating personal tab
You can edit any tab online and save it as your Personal.

You can edit, replace or remove any tab part or add personal notes – all changes will be seen only by you.

Personal tabs can be accessed anytime from any device, even offline.
Learn more »
Give kudos to tab author, rate the tab!
1 2 3 4 5
comments
print report bad tab
guest
Wanna post a correction for this tab? Suggest correction