Oops, an error
Loading. Please wait.

Sólo En El Furgón tab

1 view 1 this week
no commentswrite comment
1 2 3 4 5
3 more votes to show rating
add to favorites
×
Save as Personal and add changes to this tab that will be seen only by you. Learn more ›
×
You can save this tab as Personal to edit and correct it or add notes. All changes will be seen only by you. Learn more »
launch autoscroll
font size
0
reset
how to read this tab
guitar tuner
edit
Autoscroll
slow
fast
+/-
esc
set tempo
stop
INTRO


    B
1|--------------------------
2|--------------------------
3|-----4------4-----4-----4-
4|-4h6----4h6---4h6---4h6---  x2
5|--------------------------
6|--------------------------

    E
1|-------------------------
2|-----5-----5-----5-----5-
3|-4h6---4h6---4h6---4h6---
4|-------------------------
5|-------------------------
6|-------------------------

   B
1|--------------------------
2|--------------------------
3|-----4------4-----4-----4-
4|-4h6----4h6---4h6---4h6---
5|--------------------------
6|--------------------------

    F#             E
1|--------------------------------
2|-----7-----7---------5-----5----
3|-6h8---6h8---6---4h6---4h6---4--
4|--------------------------------
5|--------------------------------
6|--------------------------------


   B
1|--------------------------
2|--------------------------
3|-----4------4-----4-----4-
4|-4h6----4h6---4h6---4h6---
5|--------------------------
6|--------------------------

    B
1|--------7-7--
2|--7h9h7------
3|------------- x4
4|-------------
5|-------------
6|-------------

   E

1|-12-10-9--12-10-9--12-10-9--12-10-9-
2|------------------------------------
3|------------------------------------
4|------------------------------------   x2
5|------------------------------------
6|------------------------------------


   B
1|------------------------------------
2|-12-10-9--12-10-9--12-10-9-12-10-9--
3|------------------------------------  x2
4|------------------------------------
5|------------------------------------
6|------------------------------------


    F#
1|-14-12-11--14-12-11--14-12-11--14-12-11
2|---------------------------------------
3|---------------------------------------
4|---------------------------------------
5|---------------------------------------
6|---------------------------------------

   E
1|-12-10-9--12-10-9--12-10-9--12-10-9-
2|------------------------------------
3|------------------------------------
4|------------------------------------
5|------------------------------------
6|------------------------------------

   B
1|------------------------------------
2|-12-10-9--12-10-9--12-10-9-12-10-9--
3|------------------------------------
4|------------------------------------
5|------------------------------------
6|------------------------------------


B
La otra noche tome la carretera y me fuÍ
a buscarte otra vez
llegue a ese lugar que bailabas vos
llegue hasta ese burdel
                                            riff en E
E                                    ---->    1|-------12-
y ahi estabas tan puta como siempre           2|-12h14---- x4
E
ante unos cuantos borrachos mas
B
nena te habrias en el esenario
B
yo tirado me ahogaba en alcohol
        F#               E          B
y otra vez me vuelvo solo en el furgon


        E (riff)
pero bailabas nena solo por esa flor
     B                                ------->  riff en B
que tanto te gusta fumar                           1|-------14-
             E                       B             2|-16b17----
y no te importaba mas que ese viejo rocanrol
          E                   B         -----> riff en B 2
si vos bailabas nena una vez mas               1|-11-9--------10-9------
                 F#         E          B       2|------12-9-12-----9-12-
ya sabes que no sos la mas puta del lugar..


SOLO (la base es la de INTRO)

despues sigue igual que antes


y todos esos billetes que te ganaste bailando
no sirven para nada
todo es al reves
vos pensaste que de nada va a ser
ya no sos la mas puta de burdel

pero bailabas nena solo por esa flor
que tanto te gusta fumar
y no te importaba mas que ese viejo rocanrol
ya sabes que no sos la mas puta del lugar..
Suggest correction
Creating personal tab
Creating personal tab
You can edit any tab online and save it as your Personal.

You can edit, replace or remove any tab part or add personal notes – all changes will be seen only by you.

Personal tabs can be accessed anytime from any device, even offline.
Learn more »
Give kudos to tab author, rate the tab!
1 2 3 4 5
comments
print report bad tab
guest
Wanna post a correction for this tab? Suggest correction