Oops, an error
Loading. Please wait.

No Encuentro Palabras Como Decirte tab

version 2
version 2

Whole song

67 views 1 this week
no commentswrite comment
1 2 3 4 5
3 more votes to show rating
add to favorites
×
Save as Personal and add changes to this tab that will be seen only by you. Learn more ›
×
You can save this tab as Personal to edit and correct it or add notes. All changes will be seen only by you. Learn more »
launch autoscroll
font size
0
reset
how to read this tab
guitar tuner
edit
Autoscroll
slow
fast
+/-
esc
set tempo
stop
============== LAS PISADAS =====================
+----------------------------------------------+
| Compa~ia Ilimitada                           |
| NO ENCUENTRO PALABRAS COMO DECIRTE           |
| ---???---                                    |
| ---???---                                    |
+----------------------------------------------+
=============DEL ROCK EN ESPA~OL============TAB=

(se recomienda utilizar tipo de letra COURIER NEW tamaño 8)


INTRO:

      D      A7              D    G       Em
E|--*--2--0-------------0--0--2----3-----------------------------------------|
B|--*------3--2-----2_3------------------------------------------------------|
G|--*------------------------------------------------------------------------|
D|--*--0----------------------0----------------------------------------------|
A|--*---------0--------------------------------------------------------------|
E|--*------------------------------3---2---0---------------------------------|


PARTE I

                 A7          D                G             Em
E|--*-----------------0-----------2_3--2--0---------3-----------------0------|
B|--*-------------------2-----------------------------3-----------------0----|
G|--*---------------0----0------------------------0-----0---------0-------0--|
D|--*-------------------------0----------------------------------------------|
A|--*-------------0----------------------------------------------------------|
E|--*------------------------------------------3--------------0--------------| 
         COMO DECIRTE,      DECIRTE QUE YO TE AMO         DECIRTE CUANTO TE 


 
    A7               D                 G  
E|------0------------------2_3--2--0---------3-------*-----------------------|    
B|-------2-------------------------------------3-----*-----------------------|
G|----0---0--------------------------------0-----0---*-----------------------|
D|--------------------0------------------------------*-----------------------|
A|--0------------------------------------------------*-----------------------|
E|--------------------------------------3------------*-----------------------|
    AMO         PERO NO ENCUENTRO LAS PALABRAS


      D      A7              D    G       Em
E|--*--2--0-------------0--0--2----3-----------------------------------------|
B|--*------3--2-----2_3------------------------------------------------------|
G|--*------------------------------------------------------------------------|
D|--*--0----------------------0----------------------------------------------|
A|--*---------0--------------------------------------------------------------|
E|--*------------------------------3---2---0---------------------------------|


PARTE II

                 A7          D                G             Em
E|--*-----------------0-----------2_3--2--0---------3-----------------0------|
B|--*-------------------2-----------------------------3-----------------0----|
G|--*---------------0----0------------------------0-----0---------0-------0--|
D|--*-------------------------0----------------------------------------------|
A|--*-------------0----------------------------------------------------------|
E|--*------------------------------------------3--------------0--------------| 
      HACE UNAS LUNAS,      YO SIEMPRE SUEÑO CONTIGO     QUE SIEMPRE SUEÑO CON-


 
    A7               D                 G                  Em   
E|------0------------------2_3--2--0---------3---------------------0---------|    
B|-------2-------------------------------------3---------------------0-------|
G|----0---0--------------------------------0-----0-------------0-------0-----|
D|--------------------0------------------------------------------------------|
A|--0------------------------------------------------------------------------|
E|--------------------------------------3-------------------0----------------|
   TIGO        PERO NO ENCUENTRO LAS PALABRAS                   PARA DE-


    A7               D                 G                  Em   
E|------0------------------2_3--2--0---------3---------------------0---------|    
B|-------2-------------------------------------3---------------------0-------|
G|----0---0--------------------------------0-----0-------------0-------0-----|
D|--------------------0------------------------------------------------------|
A|--0------------------------------------------------------------------------|
E|--------------------------------------3-------------------0----------------|
  -CIRTE    QUE SIEMPRE ESTAS EN MI MENTE            QUE SIEMPRE ESTAS TAN PRE-


    A7               D                 G  
E|------0------------------2_3--2--0---------3-------------------------------|    
B|-------2-------------------------------------3-----------------------------|
G|----0---0--------------------------------0-----0---------------------------|
D|--------------------0------------------------------------------------------|
A|--0------------------------------------------------------------------------|
E|--------------------------------------3------------------------------------|
  -SENTE         PERO NO ENCUENTRO LAS PALABRAS

                     D                 G                 Em
E|-------------------------2_3--2--0---------3----------------------0--------|    
B|---------------------------------------------3-----------------------0-----|
G|-----------------------------------------0-----0--------------0---------0--|
D|--------------------0------------------------------------------------------|
A|---------------------------------------------------------0-----------------|
E|--------------------------------------3------------------------------------|
                                                            SIEMPRE SUEÑO CON-


    A7               D                 G  
E|------0------------------2_3--2--0---------3-------*-----------------------|    
B|-------2-------------------------------------3-----*-----------------------|
G|----0---0--------------------------------0-----0---*-----------------------|
D|--------------------0------------------------------*-----------------------|
A|--0------------------------------------------------*-----------------------|
E|--------------------------------------3------------*-----------------------|
  -TIGO        PERO NO ENCUENTRO LAS PALABRAS
 


SOLO:
   Em            A7                   D                      G  	(BIS)
E|--*-19-19-19-19-17-17-17-19-17-15-14-15-15-17-15-14-12-12-14-15-14-12------|  
B|--*-------------------------------------------------------------------15---|
G|--*------------------------------------------------------------------------|
D|--*------------------------------------------------------------------------|
A|--*------------------------------------------------------------------------|
E|--*------------------------------------------------------------------------|


PARTE III  (SE REPITE EL MISMO PATRON DE PUNTEO, PERO CAMBIA LA LETRA)


COMO DECIRTE 
DECIRTE QUE YO TE AMO
DECIRTE CUANTO TE AMO
PERO NO ENCUENTRO LAS PALABRAS

Y EN MIS CAMINOS
YO SIEMPRE  CAMINO CONTIGO
QUE SIEMPRE CAMINO CONTIGO
PERO NO ENCUENTRO LAS PALABRAS

DE UNA COSA ESTOY SEGURO MIRA 
Y ES QUE NO TENGO PALABRAS
DE UNA COSA ESTOY SEGURO MIRA 
Y ES QUE NO TENGO PALABRAS

PARA DECIRTE 
DECIRTE QUE YO TE AMO
DECIRTE CUANTO TE AMO
PERO NO ENCUENTRO LAS PALABRAS

PARA DECIRTE 
QUE MI CORAZON EN SILENCIO
YA NO ENCUENTRA PALABRAS
YA NO ENCUENTRA PALABRAS
YA NO ENCUENTRA PALABRAS


OUTRO:
        D                            END
E--*---------12---14-14-14--15-14--*----------------------------------------  
B--*----15-------------------------*----------------------------------------
G--*-------------------------------*----------------------------------------
D--*-------------------------------*----------------------------------------
A--*-------------------------------*----------------------------------------
E--*-------------------------------*----------------------------------------

================================================
Transcripcion de LEONARDO CARREÑO MONSALVD 
(LNARDO@


BUCARAMANGA/COLOMBIA:

ESTA CANCION ES BASTANTEMENTE BELLA Y SE OYE MUY BIEN CON DOS GUITARRAS.
EN LA PARTE DEL  "SOLO"  SE QUE HAY  UN  ERROR  AGRADECERIA QUIEN ME LO 
ARREGLARA   SOY:   
                 LEONARDO CARREÑO MONSALVD , ESCRIBEME!!!
                                                     
                             LNARDO@
Suggest correction
Creating personal tab
Creating personal tab
You can edit any tab online and save it as your Personal.

You can edit, replace or remove any tab part or add personal notes – all changes will be seen only by you.

Personal tabs can be accessed anytime from any device, even offline.
Learn more »
Give kudos to tab author, rate the tab!
1 2 3 4 5
comments
print report bad tab
guest
Wanna post a correction for this tab? Suggest correction