Oops, an error
Loading. Please wait.

Como Decirte tab

344 views 3 this week
no commentswrite comment
1 2 3 4 5
2 more votes to show rating
add to favorites
×
Save as Personal and add changes to this tab that will be seen only by you. Learn more ›
×
You can save this tab as Personal to edit and correct it or add notes. All changes will be seen only by you. Learn more »
launch autoscroll
font size
0
reset
how to read this tab
guitar tuner
edit
Autoscroll
slow
fast
+/-
esc
set tempo
stop
VERSIÓN COMPLETA

ESTA SERIA LA INTRODUCCIÓN ORIGINAL DEL TEMA

AFINACIÓN ESTÁNDAR

E|----------------------0-0H2--2H3-----------------|
B|--7---5---3----2---3-----------------------------|
G|-------------------------------------------------|
D|-------------------------------------------------|
A|--7---7---5----0---------------------------------|
E|-------------------------------------------------|

ESTE ARREGLO SE ESCUCHA DE FONDO MIENTRAS SE TOCA EL INTRO.
DE IGUAL MANERA SE UTILIZA PARA TOCAR LOS VERSOS.

    Em                A7                  D

E|----------0------------------0-----------------2H3P-------------|
B|-------0-----0------------2----2-------------3------3-----------|
G|----0-----------0------0----------0-------2------------2--------|
D|----------------------------------------0-----------------------|
A|---------------------0------------------------------------------|
E|--0-------------------------------------------------------------|

    G

E|--------------------|
B|-------3-------3----|
G|----0--------0------|
D|--------------------|
A|--------------------|
E|--3-------2---------|


  Em     A7
Cómo decirte
   D              G
Decirte que yo te amo
   Em             A7
Decirte cuanto te amo
      D                 G
Pero no encuentro las palabras

SIGUE ESTE PEQUEÑO ARREGLO:

E|----2-0-----------0-0H2--2H3-----------------|
B|---------3-2---3-----------------------------|
G|---------------------------------------------|
D|---------------------------------------------|
A|---------------------------------------------|
E|---------------------------------------------|


 Em        A7
Hace unas lunas
     D               G
Yo siempre sueño contigo
      Em              A7
Que siempre sueño contigo
      D                  G
Pero no encuentro las palabras

Em      A7
Para decirte
      D                  G
Que siempre estás en mi mente
     Em                  A7
Que siempre estás tan presente
      D                  G
Pero no encuentro las palabras

SOLO DE PIANO TRASCRITO PARA GUITARRA:ESCUCHEN BIEN LOS TIEMPOS.


COMO DECIRTE...                   DECIRTE CUANTO TE AMO......

E|-7-7-7-7-5-------5-5-7-5-3-2-3-3--3-3-5-3-2-0-2-0---------------------|
B|----------------------------------------------------------------------|


PERO NO ENCUENTRO PALABRAS ....

E|---0-2-3-2-0------0-0-------------------------------|X 2
B|-3-------------3------------------------------------|

 Em     A7
Cómo decirte
   D              G
Decirte que yo te amo
   Em             A7
Decirte cuanto te amo
      D                  G
Pero no encuentro las palabras

Em          A7
Y en mis caminos
     D                G
Yo siempre camino contigo
 Em                A7
Siempre camino contigo
      D                  G
Pero no encuentro las palabras

Em                         A7
De una cosa estoy seguro, mira
 D                 G
Es que no tengo palabras
Em                         A7
De una cosa estoy seguro, mira
 D                 G
Es que no tengo palabras

 Em     A7
Para decirte
   D              G
Decirte que yo te amo
   Em             A7
Decirte cuanto te amo
      D                  G
Pero no encuentro las palabras

Em      A7
Para decirte
        D               G
Que en mi corazón en silencio
Em                 A7
Ya no encuentro palabras
D                  G
Ya no encuentro palabras

OUTRO:

E|-----2-3-5-3-2---------------------------------------|
B|--3------------3--------------------------------------------------------|


SALUDOS DESDE MONTENEGRO QUINDIO COLOMBIA
OSCAR ADRIAN PARRA PAEZ....

            
            
Suggest correction
Creating personal tab
Creating personal tab
You can edit any tab online and save it as your Personal.

You can edit, replace or remove any tab part or add personal notes – all changes will be seen only by you.

Personal tabs can be accessed anytime from any device, even offline.
Learn more »
Give kudos to tab author, rate the tab!
1 2 3 4 5
comments
print report bad tab
guest
Wanna post a correction for this tab? Suggest correction