Oops, an error
Loading. Please wait.

Lágrimas Negras chords

version 2
version 2

Whole song

185 views 1 this week
no commentswrite comment
1 2 3 4 5
1 last vote to show rating
add to favorites
×
Save as Personal and add changes to this tab that will be seen only by you. Learn more ›
×
You can save this tab as Personal to edit and correct it or add notes. All changes will be seen only by you. Learn more »
launch autoscroll
font size
0
reset
transpose
0
reset
simplify chords
display chords
guitar tuner
edit
Autoscroll
slow
fast
+/-
esc
set tempo
stop
Strumming
There is no strumming pattern for this song yet. and get +5 IQ
Esta cancion es muy bonita, se las envio desde Venezuela, disfrutenla


INTRO:

Bm                                  B7            Em
----10-10-10-10-10-9----------------------------------------------------------
----12-12-12-12-12-11--12-11-12-----12------12-10-----------------------------
-11--------------------11-11-11--11------11-------12-11-9----9-12-9-12-9-12---
------------------------------------------------------------------------------
------------------------------------------------------------------------------
------------------------------------------------------------------------------

       F#7                        Bm
------------------------------------------------------------------------------
------------------------------------------------------------------------------
-9-11-12-11-----11-12-11-12-11------------------------------------------------
-------------11----------------11-12-11-9-------------------------------------
------------------------------------------------------------------------------
------------------------------------------------------------------------------

        Bm7           B7             Em7
Aunque tú, me has echado en el abandono
        A         A7                  D
aunque tú, has muerto todas mis ilusiones
       Bm7          B7                Em7
y en vez, de maldecirte con gusto en coro
             Bm                           C#7
en mis sueños te colmo,en mis sueños te colmo
           F#7 Bm
de bendicio - nes

intro
     Bm7         B7            Em7
Sufro la inmensa pena de tu extravío
       A         A7               D
siento el dolor profundo de tu partida
     Bm7          B7              Em7
y lloro sin que sepas que el llanto mio
        Bm                                   C#7
tiene lagrimas negras, tiene lagrimas negras
        F#7  Bm
como mi vi-i-da

Bm                                     F#7  Em          Bm              F#7
-----10-10-10-10-9------10---10-10-10-10-9------------------9-7-7--10-9-7-9---
-12--12-12-12-12-11-12--12---12-12-12-12-11-12-14---8-8-8-8-8-7-7--7--7-7-7---
-11-----------------11----------------------11-13---9-9-9-9-------------------
------------------------------------------------------------------------------
------------------------------------------------------------------------------
------------------------------------------------------------------------------

     Bm
-7-6-7------------------------------------------------------------------------
-7-7-7------------------------------------------------------------------------
------------------------------------------------------------------------------
------------------------------------------------------------------------------
------------------------------------------------------------------------------
------------------------------------------------------------------------------

CORO
                 Bm7                  F#7
tu me quieres dejar, yo no quiero sufrir
    Em7             Bm7             F#7     Bm7
contigo me voy mi santa aunque me cueste morir

solo2

CORO

Un jardinero de amor, siembra una flor y se va
otro viene la cultiva, de cual de los dos sera

CORO

amada prenda querida, no puedo vivir sin verte
porque mi fin es quererte y amarte toda la vida

CORO

yo te lo digo mi amor, te lo repito otra vez
contigo me voy mi santa porque contigo moriré

CORO

Solo3

CORO

yo te lo digo mi amor, que contigo morire
contigo me voy mi santa te lo repito otra vez

CORO
Suggest correction
Creating personal tab
Creating personal tab
You can edit any tab online and save it as your Personal.

You can edit, replace or remove any tab part or add personal notes – all changes will be seen only by you.

Personal tabs can be accessed anytime from any device, even offline.
Learn more »
Give kudos to tab author, rate the tab!
1 2 3 4 5
comments
print report bad tab
guest
Wanna post a correction for this tab? Suggest correction