Oops, an error
Loading. Please wait.

Príncipe Azul tab

22 views 1 this week
no commentswrite comment
1 2 3 4 5
3 more votes to show rating
add to favorites
×
Save as Personal and add changes to this tab that will be seen only by you. Learn more ›
×
You can save this tab as Personal to edit and correct it or add notes. All changes will be seen only by you. Learn more »
launch autoscroll
font size
0
reset
how to read this tab
guitar tuner
edit
Autoscroll
slow
fast
+/-
esc
set tempo
stop
Hola esta canción la dedico a mi niñita preciosa Sandy
Eres la más linda, eres única, te amo, eres muy buena, no cambies
Estoy Enamorado de ti...


  CUERDAS: 6 5 4 3 2 1
ACORDES:
        D: x x 0 2 3 2 - Re
       Bm: x 2 4 4 3 2 - Si menor
       Bb: x 1 3 3 3 1 - Si Bemol
       D6: x x 0 2 0 2 - Re 7


Intro:

   D
e|-------------------------|
B|-------0--0--2--2--0--0--|
G|-2--2--------------------|
D|-0-----0-----0-----0-----|
A|-------------------------|
E|-------------------------|x2


B|-----------------------|
G|-2------2-----2-----2--|
D|-0---------------------|
Cruce nueve tormentas

B|-----0------0------0------0--|
G|-----------------------------|
D|-----0-----------------------|
siete mares y un ciclón

B|--2------2----2------2--|
G|------------------------|
D|--0---------------------|
luché contra gigantes dentro

B|-0--------0----0----0---|
G|------------------------|
D|-0----------------------|
   de mi habitación


B|--------------------------|
G|--2-------2----2-----2----|
D|--0-----------------------|
Clave mi espada en el bosque

B|--0-----0---0---0--|
G|-------------------|
D|--0----------------|
   de la soledad

B|-2------2--------2------2--|
G|---------------------------|
D|-0-------------------------|
y me ahogue en el mar de la

    Bm
profundidad, oscuridad, inmensidad

    D
Corrí por el desierto
     Bm
y mi alma dejé arder
     D
sentí en mis labios
          Bm
el rocio del amanecer

    D
Me tatué con fuego
          Bm
el nombre de mi único amor
    D
y me estrellé en el cielo
           Bm
y desde entonces soy, solo soy, solo soy

     D            Bm
Un príncipe azul, la inmensidad
       Bb         D
de un planeta en soledad
 D            Bb
Tierra feliz voy desde aquí
     D           Bm
te quedas tan pequeña, pequeña

D D6 D D6

    D
Soldado en una guerra
      Bm
pero luego deserté
    D
cambie el fusil por un clavel
    Bm
del color de tu piel

   D
Olfatee dolores
        Bm
que ya nunca olvidaré
   D
robé un cohete y ya dentro
Bm
me lance, me tiré, disparé

  D            Bm
Príncipe azul, la inmensidad
       Bb         D
de un planeta en soledad
 D            Bb
Tierra feliz voy desde aquí
     D           Bm
te quedas tan pequeña, pequeña

D Bb D D Bb D

  D            Bm
Príncipe azul, la inmensidad
       Bb         D
de un planeta en soledad
 D            Bb
Tierra feliz voy desde aquí
     D           Bm
te quedas tan pequeña, pequeña, absurda, pequeña

B|-----------------------|
G|-2------2-----2-----2--|
D|-0---------------------|
Cruce nueve tormentas

B|-----0------0------0------0--|
G|-----------------------------|
D|-----0-----------------------|
siete mares y un ciclón

D D6 D D6
D D6 D D6
D D6 D

            
            
Suggest correction
Creating personal tab
Creating personal tab
You can edit any tab online and save it as your Personal.

You can edit, replace or remove any tab part or add personal notes – all changes will be seen only by you.

Personal tabs can be accessed anytime from any device, even offline.
Learn more »
Give kudos to tab author, rate the tab!
1 2 3 4 5
comments
print report bad tab
guest
Wanna post a correction for this tab? Suggest correction