Oops, an error
Loading. Please wait.

Déjalo Así tab

22 views 1 this week
no commentswrite comment
1 2 3 4 5
3 more votes to show rating
add to favorites
×
Save as Personal and add changes to this tab that will be seen only by you. Learn more ›
×
You can save this tab as Personal to edit and correct it or add notes. All changes will be seen only by you. Learn more »
launch autoscroll
font size
0
reset
how to read this tab
guitar tuner
edit
Autoscroll
slow
fast
+/-
esc
set tempo
stop
INTRODUCCION


                     A5
e----9-10-9---9-10-9---9-10-9-12-9-10-9-----------------
B--10-------10-------10---------------------------------
G-------------------------------------------------------
D-------------------------------------------------------
A-------------------------------------------------------
E-------------------------------------------------------

                      C#5
e---9-10-9--9-10-9--9-10-9-12-9-10-9--------------------
B--9-------9-------9------------------------------------
G-------------------------------------------------------
D-------------------------------------------------------
A-------------------------------------------------------
E-------------------------------------------------------

                     B5
e----7-9-7--7-9-7--7-9-7-10-7-9-7-----------------------
B--7-------7------7-------------------------------------
G-------------------------------------------------------
D-------------------------------------------------------
A-------------------------------------------------------
E-------------------------------------------------------

                     C#5
e---9-10-9--9-10-9--9-10-9-12-9-10-9--------------------
B--9-------9-------9------------------------------------
G-------------------------------------------------------
D-------------------------------------------------------
A-------------------------------------------------------
E-------------------------------------------------------


A5                         C#5
déjalo asi y pensemos que todo fue casual
             B5                  C#5
no pensemos tanto en lo difícil, no, no, no.

EN ESTA PARTE  SE TOKA CON EL INTRO

déjalo asi y quizás te vuelva a ver

en luna llena y de casualidad, un tanto quizá.


A5                            C#5
por favor que todo tenga algo de razón
          B5          C#5
y déjalo ahí, déjalo ahí,
A5                            C#5
por favor que todo tenga algo de razón
          B5          C#5
y déjalo ahí, déjalo ahí... por favor.


déjalo asi
e--------------------------------------------------------------------
B--10-10-10-VARIAS  VECES Y LA JALAS AL PRIMER TRASTE----------
G--------------------------------------------------------------------

y pensemos que fue la noche
e--------------------------------------------------------------------
B-9-9-9-9-9- VARIAS  VECES Y LA JALAS AL PRIMER TRASTE
G--------------------------------------------------------------------

no me hagas largo el viaje
e--------------------------------------------------------------------
B-7-7-7-7-7-7-9-9-9-9-9-9-10-10-10-10-10-10- JALAS AL PRIMER TRASTE
G--------------------------------------------------------------------

no me hagas mirar atrás... no.
e--------------------------------------------------------------------
B--------12-12-12-12-10-10-10-10-10-12-12-12-12-10-10-10-10----------
G--------------------------------------------------------------------

SOLO

  A5                                C#5
e---------------------------------------------
B--------10-12^^-14^^-14-15-17-15-14-12-10----
G--11-13--------------------------------------
D---------------------------------------------
A---------------------------------------------
E---------------------------------------------
                        B5
e---------------------------------------------
B---------------10-12^^12-10-9-12^^-10--------
G----------11-13------------------------13-13-
D-----11-13-----------------------------------
A---------------------------------------------
E---------------------------------------------
                             C#5
e---------------------------------------
B------12^^-10--------------------------
G-11-11--------13-13-11-11--------11-13-
D---------------------------11-13-------
A---------------------------------------
E---------------------------------------
                             C#5
e---------------------------------------
B-10-12-14-12-10-12-17-15-14-12-10-9-10-
G---------------------------------------
D---------------------------------------
A---------------------------------------
E---------------------------------------

A5                            C#5
por favor que todo tenga algo de razón
          B5          C#5
y déjalo ahí, déjalo ahí,
A5                            C#5
no caigas en la trampa de echarme de menos
          B5          C#5
y déjalo ahí, déjalo ahí.

e----9-10-9---9-10-9---9-10-9-12-9-10-9-9------------
B--10-------10-------10-----------------10-----------
G----------------------------------------------------
D----------------------------------------------------
A----------------------------------------------------
E----------------------------------------------------

            
            
Suggest correction
Creating personal tab
Creating personal tab
You can edit any tab online and save it as your Personal.

You can edit, replace or remove any tab part or add personal notes – all changes will be seen only by you.

Personal tabs can be accessed anytime from any device, even offline.
Learn more »
Give kudos to tab author, rate the tab!
1 2 3 4 5
comments
print report bad tab
guest
Wanna post a correction for this tab? Suggest correction