Oops, an error
Loading. Please wait.

Como Un Delfín tab

1 view 1 this week
no commentswrite comment
1 2 3 4 5
3 more votes to show rating
add to favorites
×
Save as Personal and add changes to this tab that will be seen only by you. Learn more ›
×
You can save this tab as Personal to edit and correct it or add notes. All changes will be seen only by you. Learn more »
launch autoscroll
font size
0
reset
how to read this tab
guitar tuner
edit
Autoscroll
slow
fast
+/-
esc
set tempo
stop
Riff1:
e|-------------------------------------------------
B|-------------------------------------------------
G|-12-10-12---10-10-12-10---8-7-8--8-7-------------
D|-12-10-12---10-10-12-10---8-7-8--8-7----5s8p7----
A|-10--8-10----8--8-10--8---6-5-6--6-5----------8--
E|-------------------------------------------------

Riff2:
e|-----------------
B|-----------------
G|-----------------
D|--5s8p7----------
A|--------8-8s10---
E|-----------------

*: (se arpegiaría así)

     SOLm*       RE#*
e|-------------------------
B|--------11----------6----
G|------12----------8------
D|----12----------8--------
A|--10----------6----------
E|-------------------------


INTRO: Riff1 (x2)

SOLm                                               RE#           Riff2
Dicen que tiene los renglones más torcidos que los de Luca de Tena
SOLm                                                RE#          Riff2
pero él opina que los que no entienden nada son los que están ahí afuera
SOLm                   FA                    RE#                Riff2
rompe el silencio sólo cuando ve que debe vaciar de su cabeza
SOLm                    FA                       RE#
mil pensamientos que se funden y consiguen que se duerma su entereza

                   LA#
y entonces sale a volar?
        FA          RE#
no entiende de rascacielos, de corbatas
     LA#          FA            RE#
de delitos, ni de faltas, ni de fiestas concertadas
    SOLm*          RE#*        SOLm*       RE#*
de sudar pá no ser nada, de engañarse con palabras
      SOLm*          RE#*            FA
de burlarse de aquél que no entiende nada

              LA#            FA
y vuelve al jardín que le ve reír
                LA#               RE#
donde esconde al niño que sí fue feliz,
            LA#             FA              RE#
donde hay flores que prefieren no estar en macetas

                LA#            FA
y si como un delfín le ves sonreír
             LA#                    RE#
es porque de dentro le ha vuelto a salir
              LA#           FA          RE#
mil frases, que juntas, hacen un bello poema
  Riff1 (x2)
?y vuelve a sufrir


SOLm                                                 RE#            Riff2
Dicen que tiene, entre las rejas, el poder para ahuyentar a la tristeza
SOLm                                               RE#           Riff2
pero él defiende que esa es una de las cosas que da la Naturaleza
SOLm                 FA                      RE#                Riff2
en soledad es cuando sabe que nadie le va a robar esa certeza
SOLm                  FA                          RE#
de que su vida siempre fue como él la quiso y no será como la cuentan

                   LA#
y entonces sale a volar?
        FA             RE#
no entiende de construcciones, de banderas
     LA#            FA            RE#
de llevar libros a hogueras, hacer moldes de una idea
    SOLm*       RE#*        SOLm*       RE#*
ensuciar vidas ajenas, encerrar mentes abiertas
    SOLm*           RE#*        FA
de tenerse que esconder tras la apariencia

              LA#            FA
y vuelve al jardín que le ve reír
                LA#               RE#
donde esconde al niño que sí fue feliz,
            LA#             FA              RE#
donde hay flores que prefieren no estar en macetas

                LA#            FA
y si como un delfín le ves sonreír
             LA#                    RE#
es porque de dentro le ha vuelto a salir
              LA#           FA          RE#
mil frases, que juntas, hacen un bello poema
Riff1 (x2)
?y vuelve a sufrir


[SOLO]

e|-------------------------------------------------
B|-------------------------------------------------
G|-7--5s3s5--------------------------7-------------
D|---------8-8b10-5-----8------5-8-7---------------
A|------------------6-6----6-8---------------------
E|-------------------------------------------------

e|---6-5-------------------------------------------
B|-8-----8-6--8-6----------------------------------
G|---------------8--------[TAPPING]----------------
D|-------------------------------------------------
A|-------------------------------------------------
E|-------------------------------------------------

e|-6----6-8s10-8-6-6-8-6---13-11-10-11-10----------
B|----8-----------------------------------13-11----
G|----------------------------------------------10-
D|-------------------------------------------------
A|-------------------------------------------------
E|-------------------------------------------------

e|-------------------------------------------------------
B|-10p11h10-----10p11h10-----10p11h10-----10p11h10p11-13-
G|----------12-----------12-----------12-----------------
D|-------------------------------------------------------
A|-------------------------------------------------------
E|-------------------------------------------------------


              LA#            FA
y vuelve al jardín que le ve reír
                LA#               RE#
donde esconde al niño que sí fue feliz,
            LA#             FA              RE#
donde hay flores que prefieren no estar en macetas

                LA#            FA
y si como un delfín le ves sonreír
             LA#                    RE#
es porque de dentro le ha vuelto a salir
              LA#           FA          RE#
mil frases, que juntas, hacen un bello poema
  Riff1
?y vuelve a sufrir


-------------------------------------
Dudas, peticiones y comentarios:
mixigodo [arroba] gmail . com
-------------------------------------

            
            
Suggest correction
Creating personal tab
Creating personal tab
You can edit any tab online and save it as your Personal.

You can edit, replace or remove any tab part or add personal notes – all changes will be seen only by you.

Personal tabs can be accessed anytime from any device, even offline.
Learn more »
Give kudos to tab author, rate the tab!
1 2 3 4 5
comments
print report bad tab
guest
Wanna post a correction for this tab? Suggest correction