Oops, an error
Loading. Please wait.

Bésame Mucho tab

version 2
version 2

Whole song

Interactive

687 views 6 this week
no commentswrite comment
1 2 3 4 5
3 more votes to show rating
add to favorites
×
Save as Personal and add changes to this tab that will be seen only by you. Learn more ›
×
You can save this tab as Personal to edit and correct it or add notes. All changes will be seen only by you. Learn more »
launch autoscroll
font size
0
reset
how to read this tab
guitar tuner
edit
Autoscroll
slow
fast
+/-
esc
set tempo
stop
HOLA A TODOS DE LA CUERDA, ENCONTRE ESTA PISTA, LA TRANSCRIBO
PARA COMPARTIRLA CON USTEDES, LA VERDAD ES UNA PISTA MUY BUENA
MUY ROMANTICA.


                                     NOTA:
      Las -X- indican un pequeño golpe en las cuerdas, no necesariamente
      las que se marcan, se pueden golpear todas con la mano o algunas.


INTRO

1|-----------------1--1--0-------|-----|
2|--1--X--1--1-----1--1--0-----3-|-----|
3|--0--X--0--0--0--2--2--1--1----|-----|
4|--2--X--2--2-----0-------------|-----|
5|--0--X-----0-------------------|-----|
6|--------------0--------------0-|-0-4-|


1|-----------------------0-----|-----|
2|--1--X--1--1-----3--3--3--3--|-----|
3|--0--X--0--0--0--2--2--1--1--|-----|
4|--2--X--2--2-----3--3--------|-----|
5|--0--X-----0-----2--2--------|-----|
6|--------------0--------------|-0-4-|
                                  |
                                  |
Se repite todo el intro, menos el ultimo bajeo y continuamos...

°°°°°°°°°°°°°°°°°°°°°°°°°°°**1**°°°°°°°°°°°°°°°°°°°°°°°°°°°°°°°°°°°°

1|--------------|---------|-----------0------|---------------------|
2|--1--X--1--1--|---------|-----0--1--1-X-3--|---------------------|
3|--0--X--0--0--|---0---0-|--2--2--0--2-X-2--|---------------------|
4|--2--X--2--2--|-2---2---|--2--------0-X----|---0--3--2--0--------|
5|--0--X-----0--|--------0|-------------X----|-0-------------3--0--|
6|--------------|---------|------------------|---------------------|


1|--------0-0-0--1-1-1--4--5--7--0-----|-------------------|
2|-3-3-3--1-1-1--1-1-1--3--------1-X-1-|-------------------|
3|-2-2-2--2-2-2--2-2-2--4--5--7--0-X-0-|-------------------|
4|-3-3-3--3------0-----------------X-2-|---0-3-2-0-2-0-----|
5|-2-----------------------------0-X-0-|-0-----------------|
6|-------------------------------------|---------------8-7-|

1|-5---5--5-|-------------|-5--------------|-------------------|
2|-5-X-5--5-|-------------|-5--8--6--5-X---|-------------------|
3|-5-X-5--6-|-------------|-6--------5-X-7-|-------------------|
4|---X------|---5---5-----|----------7-X-7-|---------5-7-5-7-9-|
5|---X------|-7---7---7---|----------5-X---|---5-7-8-----------|
6|-5--------|-----------5-|----------------|-5-----------------|


1|-5--------0--------------|-----------|
2|-5--5--------1-----1-X-0-|-----------|
3|-5--5--5--------2--2-X-1-|-2---2---2-|
4|----5--5-----2--2--0-X---|-2---2---2-|
5|-0-------------------X---|---0---0---|
6|----------0--------------|-----------|

riff-1

1|-1--0------------------|
2|------3--1--0----------|
3|---------------2--1----|
4|---------------------3-|
5|-----------------------|
6|-----------------------|

Se repiete una vez mas desde **1**, la segunda vez se hace con riff-2

riff-2

1|-0h1h0---------------------------|
2|-------3h1h0-----1h0-------------|
3|-------------2h0-----2h0---------|
4|-------------------------2h0-----|
5|-----------------------------3h0-|
6|---------------------------------|

°°°°°°°°°°°°°°°°°°°°°°°°°°°°**2**°°°°°°°°°°°°°°°°°°°°°°°°°°°°°°°°°°°

1|-------------------------------------------------0-----|-----|
2|-3-X-3--3--1--0--1-X-1--1--0-----0-X-0--0--1--3--1-X-2-|-----|
3|-2-X-2--2--2--0--2-X-2--2--0--2--1-X-1--1--------0-X-0-|-----|
4|-0-X----0----------X---------------X---------------X-2-|-----|
5|---X-------------0-X---------------X-------------0-X---|-0---|
6|---------------------------------0---------------------|---0-|


1|---------------------------------------------------|------------|
2|-3-X-3--3--1--0--1-X-1--1--0-------X-0--0--3--1--0-|------------|
3|-2-X-2--2--2--0--0-X-0--0--0--2--2-X-2--2--------1-|------------|
4|-0-X----0--------2-X----2-----2--3-X----3--------2-|---2-0------|
5|---X-------------0-X-------------2-X----2----------|-2-----3-2--|
6|-------------------------------------------------0-|------------|


SE REPITE LA PARTE **1** CON EL RIFF-2 Y LA PARTE **2**

PARA EL FINAL SE REPITE LA PARTE **1**  CON EL RIFF-2 Y DESPUES ESTA PARTE

°°°°°°°°°°°°°°°°°°°°°°°°°°°°°°°**3**°°°°°°°°°°°°°°°°°°°°°°°°°°°°°°°°

1|-5--------0--------------|-----------|
2|-5--5--------1-----1-X-0-|-----------|
3|-5--5--5-----0--2--2-X-1-|-2---2---2-|
4|----5--5-----2--2--0-X---|-2---2---2-|
5|-0-------------------X---|---0---0---|
6|----------0--------------|-----------|


1|-1-0----0-------|
2|------3---3-1-0-|
3|----------------|
4|----------------|
5|----------------|
6|----------------|


1|-5--------0--------------|-----------|
2|-5--5--------1-----1-X-0-|-----------|
3|-5--5--5-----0--2--2-X-1-|-2---2---2-|
4|----5--5-----2--2--0-X---|-2---2---2-|
5|-0-------------------X---|---0---0---|
6|----------0--------------|-----------|

1|---------------------------------------|--7--|
2|-----------------0h1p1-----------------|--5--|
3|-------------0h2-------2p0-------------|--5--|
4|---------0h2---------------2p0---------|--5--|
5|-----0h3-----------------------3p0h3-0-|-----|
6|-0h3-----------------------------------|-----|


con mucha practica y paciencia lograran dominarla, saludos


UNA PISTA MEXICANA, CONOCIDA POR TODO EL MUNDO Y QUE ENCHINA LA PIEL
DE AQUELLOS QUE DISFRUTAN ESTA HERMOSA MELODIA....


                       ***
                     *  *
::: (|_(| .. *....*  *   *
*: (=' :') :*....*     ** *
... (,(')(')¤...*..
Suggest correction
Creating personal tab
Creating personal tab
You can edit any tab online and save it as your Personal.

You can edit, replace or remove any tab part or add personal notes – all changes will be seen only by you.

Personal tabs can be accessed anytime from any device, even offline.
Learn more »
Give kudos to tab author, rate the tab!
1 2 3 4 5
comments
print report bad tab
guest
Wanna post a correction for this tab? Suggest correction