Oops, an error
Loading. Please wait.

El Hampón tab

19 views 1 this week
no commentswrite comment
1 2 3 4 5
3 more votes to show rating
add to favorites
×
Save as Personal and add changes to this tab that will be seen only by you. Learn more ›
×
You can save this tab as Personal to edit and correct it or add notes. All changes will be seen only by you. Learn more »
launch autoscroll
font size
0
reset
how to read this tab
guitar tuner
edit
Autoscroll
slow
fast
+/-
esc
set tempo
stop
uTA mARe kIeN sE sEPA lA lEtRA vAKAn pS
Xq nO ME LA sE TOdA sPeRO sTa WAdA
LeS aYUdE eN ALgO yA eL sOlO eS UNa
ChAMBA PX LuEGo Se LOS kUeLgO...
mENtAdAS aLAMaDRE o kEJAs!...


e|-----------------------------|
B|-----------------------------|
G|-----------------------------|
D|----<5>---<5>---<5>----------|
A|--44----44----44----33-22----|
E|--22----22----22----55-00----|

e|---------------------------------------|
B|---------------------------------------|
G|---------------------------------------|
D|---------------------------------------|
A|-44-4-4-4-4-4--77---44-4-4-4-4-4--22---|
E|-22-0-2-0-2-0--55---22-0-2-0-2-0--00---|


  Yo solo pasaba por ahi,   viendo ala gente komer basura
e|---------------------------------------------|
B|---------------------------------------------|
G|---------------------------------------------|
D|---------------------------------------------|
A|-44-4-4-4-4-4--77---------44-4-4-4-4-4--22---|
E|-22-0-2-0-2-0--55---------22-0-2-0-2-0--00---|


  yo no sabia que hacer yo solo pasaba por ahi
e|---------------------------------------------|
B|---------------------------------------------|
G|---------------------------------------------|
D|---------------------------------------------|
A|-44-4-4-4-4-4--77---------44-4-4-4-4-4--22---|
E|-22-0-2-0-2-0--55---------22-0-2-0-2-0--00---|


  la crisis me llevo a pecar, todo hacia para comer
e|---------------------------------------------|
B|---------------------------------------------|
G|---------------------------------------------|
D|---------------------------------------------|
A|-44-4-4-4-4-4--77---------44-4-4-4-4-4--22---|
E|-22-0-2-0-2-0--55---------22-0-2-0-2-0--00---|


  tuve que asaltar,  casi matar
e|---------------------------------------------|
B|---------------------------------------------|
G|---------------------------------------------|
D|---------------------------------------------|
A|-44-4-4-4-4-4--77---------44-4-4-4-4-4--22---|
E|-22-0-2-0-2-0--55---------22-0-2-0-2-0--00---|


 yo soy el hampon... vivo de... entre llantas y botellas
e|-----------------------------|
B|-----------------------------|
G|-----------------------------|
D|----<5>---<5>---<5>----------|
A|--44----44----44----33-22----|
E|--22----22----22----55-00----|


catres viejos olor a desague troncos quemados varados por el mar
e|-----------------------------|
B|-----------------------------|
G|-----------------------------|
D|----<5>---<5>---<5>----------|
A|--44----44----44----33-22----|
E|--22----22----22----55-00----|

F#5     C5      F#5            A5
como vivir plata no tengo voy a rekursearme
F#5     C5      F#5            A5
no tengo kasa plata no tengo voy a rekursearme


  me dicen indio pelo amarrillo esa es mi gente  venga konmigo
e|---------------------------------------------|
B|---------------------------------------------|
G|---------------------------------------------|
D|---------------------------------------------|
A|-44-4-4-4-4-4--77---------44-4-4-4-4-4--22---|
E|-22-0-2-0-2-0--55---------22-0-2-0-2-0--00---|


 yo les voy a enseñar! la klase de esporas que van a aspirar!
e|---------------------------------------------|
B|---------------------------------------------|
G|---------------------------------------------|
D|---------------------------------------------|
A|-44-4-4-4-4-4--77---------44-4-4-4-4-4--22---|
E|-22-0-2-0-2-0--55---------22-0-2-0-2-0--00---|

 yo soy el hampon... vivo de... entre llantas y botellas
e|-----------------------------|
B|-----------------------------|
G|-----------------------------|
D|----<5>---<5>---<5>----------|
A|--44----44----44----33-22----|
E|--22----22----22----55-00----|


 catres viejos olor a desague troncos quemados varados por el mar
e|-----------------------------|
B|-----------------------------|
G|-----------------------------|
D|----<5>---<5>---<5>----------|
A|--44----44----44----33-22----|
E|--22----22----22----55-00----|


F#5 A5 G#5 G5  ---VIENE AKOMPAÑADO KON EL SOLO :)
F#5 A5 G#5 G5


e|-----------------------------|
B|-----------------------------|
G|-----------------------------|
D|----<5>---<5>---<5>----------|
A|--44----44----44----33-22----|
E|--22----22----22----55-00----|

UYYY!

e|-----------------------------|
B|-----------------------------|
G|-----------------------------|
D|----<5>---<5>---<5>----------| (X3)
A|--44----44----44----33-22----|
E|--22----22----22----55-00----|

YO SOLO PASABA POR AHI!
e|---------------------------------------------|
B|---------------------------------------------|
G|---------------------------------------------|
D|---------------------------------------------|
A|-44-4-4-4-4-4--77---------44-4-4-4-4-4--22---|
E|-22-0-2-0-2-0--55---------22-0-2-0-2-0--00---|  F#5

X) X) X) X) X) X) X) X) X) X) X) X) X) X) X) X) X) X) X) X) X) X)
X) X) X) X) X) X) X) X) X) X) X) X) X) X) X) X) X) X) X) X) X) X)
X) X) X) X) X) X) X) X) X) X) X) X) X) X) X) X) X) X) X) X) X) X)
X) X) X) X) X) X) X) X) X) X) X) X) X) X) X) X) X) X) X) X) X) X)
X) X) X) X) X) X) X) X) X) X) X) X) X) X) X) X) X) X) X) X) X) X)
Suggest correction
Creating personal tab
Creating personal tab
You can edit any tab online and save it as your Personal.

You can edit, replace or remove any tab part or add personal notes – all changes will be seen only by you.

Personal tabs can be accessed anytime from any device, even offline.
Learn more »
Give kudos to tab author, rate the tab!
1 2 3 4 5
comments
print report bad tab
guest
Wanna post a correction for this tab? Suggest correction