Oops, an error
Loading. Please wait.

Canción 9 tab

by Cooper
13 views 1 this week
no commentswrite comment
1 2 3 4 5
3 more votes to show rating
add to favorites
×
Save as Personal and add changes to this tab that will be seen only by you. Learn more ›
×
You can save this tab as Personal to edit and correct it or add notes. All changes will be seen only by you. Learn more »
launch autoscroll
font size
0
reset
how to read this tab
guitar tuner
edit
Autoscroll
slow
fast
+/-
esc
set tempo
stop
bueno esta kncion la sake a oido mazomenos le dejo la tab

e--------------------------------------------------------------
B--------------------------------------------------------------
G-------------------------------9-11-12--14--------------------
D--------------------------------------------------------------
A------7-----7----4--5/7-5-4-5--7-9-10--12---------------------
E---5----4-4----2----------------------------------------------

A5    G#5       F#5
ya deben de ser la 2 (MUTEADO)
D5          E5
hace muxo k NO veo el reloj
A5    G#5       F#5
la noxe pronto vostesara
D5          E5
y el silencio terminara y no estas
A5    G#5       F#5
en mi kama io aun spero k
D5          E5
por mi ventana vueles
A5    G#5         F#5
no me digas k ola aki estoy
              D5  D5/E5
lo k prometi ayer      desde hoi voi a kumplir
A5 G5 D5 E5
A5            G#5        F#5         D5   E5
EntRe sonrisas me niego la posibilidad de volver
A5            G#5        F#5         D5   E5
pues io se d k tu ia no.. ami lado volveras a reir
A5    G#5   F#5  D5  E5
a gruñir a decir k stas feliz
A5    G#5          F#5
kizas una zonrisa t pueda robar
D5             E5
pero en ese sentidooo..
ya me da iwaaal

e-------------------------------------------------
B-------------------------------------------------
G-----------7-------------------------------------
D--7--7--7----5-9--9--9--9---7-7-7-7----5-5-5-5-------
A--5--5--5------7--7--7---7--5-5-5---5--3-3-3---3-----
E---------------------------------------------
A5             G#5     F#5        D5      E5
EntRe sonrisas me niegO la pOsibilidad de vOlver
A5             G#5     F#5     D5      E5
pues iO se d k tu ia nO ami ladO vOlveras
A5             G#5     F#5 D5    E5
 a reir a gruñir a decir k stas feliz
A5             G#5     F#5
kizas una zOnrisa t pueda rObar
D5           E5
perO en ese sentidooo...
ya me da iwal...


USTEDES LA TERMINAN  O DESPUES LA MEJORO MI MSN ES LUMOBER12_24@

            
            
Suggest correction
Creating personal tab
Creating personal tab
You can edit any tab online and save it as your Personal.

You can edit, replace or remove any tab part or add personal notes – all changes will be seen only by you.

Personal tabs can be accessed anytime from any device, even offline.
Learn more »
Give kudos to tab author, rate the tab!
1 2 3 4 5
comments
print report bad tab
guest
Wanna post a correction for this tab? Suggest correction