Oops, an error
Loading. Please wait.

Báñate En Las Canteras tab

56 views 1 this week
no commentswrite comment
1 2 3 4 5
3 more votes to show rating
add to favorites
×
Save as Personal and add changes to this tab that will be seen only by you. Learn more ›
×
You can save this tab as Personal to edit and correct it or add notes. All changes will be seen only by you. Learn more »
launch autoscroll
font size
0
reset
how to read this tab
guitar tuner
edit
Autoscroll
slow
fast
+/-
esc
set tempo
stop
__Tal vez convenga irlo pensando,
LA
cualquier mañana cambiará tu estrella.
Es un regalo del hambre, el cielo está en duda,
y si miras hacia el frente verás como se mue___ve,
                                             RE
es una horda oculta en la arena,
no ves ondear la bandera del
___fanatismo islámico,
LA
si vas a se__guir durmiendo la siesta.
           LA7

   ___Báñate en las cante___ras antes de que sea ma___rroquí
   SOL                    MI                       LA
   ___Báñate en las cante___ras antes de que sea ma___rroquí
   SOL                    MI                       LA7

___Ya es hora de que te preguntes
si quieres ser cola de león o cabeza de ratón,
no es malo ser neutral en un mundo sin patria ni religión.
___Pero si lo prefieres ponte tu mejor disfraz que comienza el carnaval.
Es ___una horda oculta en la arena,
si vas a se__guir durmiendo la siesta.

   ___Báñate en las cante___ras antes de que sea ma___rroquí
   SOL                    MI                       LA
   ___Báñate en las cante___ras antes de que sea ma___rroquí
   SOL                    MI                       LA7

(Punteo 2º)


__Tal vez convenga irlo pensando,
cualquier mañana cambiará tu estrella.
la boca que calla la vergüenza otorga
y si miras hacia el frente verás como se mue___ven,
es una horda oculta en la arena,
no ves ondear la bandera del
___fanatismo islámico,
si vas a se__guir durmiendo la siesta.

   ___Báñate en las cante___ras antes de que sea ma___rroquí
   SOL                    MI                       LA
   ___Báñate en las cante___ras antes de que sea ma___rroquí
   SOL                    MI                       LA7

Báñate en las canteras
báñate en las canteras
báñate en las canteras antes de que sea......MARROQUÍ


------------------------------------------------------------------------

Punteo inicio
e|-----------------------------------------------------------------------5-|
B|-----------------------------------------------------------------------5-|
G|----------------6h7-6h7-7/9-9-9-9-10-10-9-10-9--------------6h7h6------6-|
D|-7h8h7-5-7~-7h8--------------------------------7h8h7-5-7-7h8------8-7--7-|
A|-----------------------------------------------------------------------7-|
E|-----------------------------------------------------------------------5-|

Rif intro (LA)

e|-------------------------------------------------|
B|-2-0---0-----2-0---0-----2-0---0-----------------|
G|-----2---2-2-----2---2-2-----2---2-2--2-0-2-2----|
D|-----------2-----------2-----------2--2-0-0-2----|
A|-----------0-----------0-----------0--0-----0----|
E|----------------------------------------3-3------|

e|--------------------------------------------|
B|-2-0---0-----2-0---0-----2-0---0------------|
G|-----2---2-2-----2---2-2-----2---2-----2----|
D|-----------2-----------2-----------4h5-2----|
A|-----------0-----------0---------------0----|
E|--------------------------------------------|


Acompañamiento a estrofa
*Repetir 8 veces la parte en La, 4 en Re y otras 4 en La.

      LA           LA                 RE           RE  [--acordes 2ª guit
e|---------------------|         e|---------------------|
B|---------------------|         B|---------------------|
G|---------------------|         G|----2--2-4-2-5-4-2---|
D|----2--2-4-2-5-4-2---|         D|----0--0-0-0-0-0-0---|
A|----0--0-0-0-0-0-0---|         A|---------------------|
E|---------------------|         E|---------------------|


*Cambio de LA a RE en segundo 1:40
e|---------------------------|
B|---------------------------|
G|---------------------------|
D|----4-5-6-7----------------|
A|----2-3-4-5----------------|
E|---------------------------|


Punteo 2º
e|----------------------------------------------------------
B|----------------------------------------------------------
G|-----------------------6h7-6h7-7/9-9-9-9-9-10-10-9-10-9---
D|-7h8h7-5-7~7-7~7-7~7h8------------------------------------
A|----------------------------------------------------------
E|----------------------------------------------------------

----------------------------------------------|
----------------------------------------------|
----------------6h7h6---------6---------------|
--7h8h7-5-7-7h8-------8-7-7h8---8-7-8-7-7-8-7-|
----------------------------------------------|
----------------------------------------------|

e|-------------------------------------------------------
B|------------------------ 7h8-7h8-7h8-8/10-10-10-11-10--
G|-7h8h7-5-7~7-7~7h8-7~7h8-------------------------------
D|-------------------------------------------------------
A|-------------------------------------------------------
E|-------------------------------------------------------

----------------------------5------4-----|
----------------------------5--4/5-------|
---------------6h7h6-7-7h9--6------------|
-7h8h7-5-7-7h8-----------7----------|
----------------------------7------------|
----------------------------5------------|


e|-----5-----5-----5-----5-----5----------------
B|-4/5---4/5---4/5---4/5---4/5------------------
G|--------------------------------6-6-6-6-4-2-2-
D|--------------------------------7-7-7-7-4-2-2-
A|----------------------------------------------
E|----------------------------------------------

-----5-----5-----5-----5-----5-----------------------|
-4/5---4/5---4/5---4/5---4/5----8-8-8-8-8-8--8-|
--------------------------------------6-6-6-6-6-6--6-|
--------------------------------------7-7-7-7-7-7--7-|
-----------------------------------------------------|
-----------------------------------------------------|

            
            
Suggest correction
Creating personal tab
Creating personal tab
You can edit any tab online and save it as your Personal.

You can edit, replace or remove any tab part or add personal notes – all changes will be seen only by you.

Personal tabs can be accessed anytime from any device, even offline.
Learn more »
Give kudos to tab author, rate the tab!
1 2 3 4 5
comments
print report bad tab
guest
Wanna post a correction for this tab? Suggest correction