Oops, an error
Loading. Please wait.

Algun Día tab

by Corvus
19 views 1 this week
no commentswrite comment
1 2 3 4 5
3 more votes to show rating
add to favorites
×
Save as Personal and add changes to this tab that will be seen only by you. Learn more ›
×
You can save this tab as Personal to edit and correct it or add notes. All changes will be seen only by you. Learn more »
launch autoscroll
font size
0
reset
how to read this tab
guitar tuner
edit
Autoscroll
slow
fast
+/-
esc
set tempo
stop
SALUDOS A ESTA GENIAL BANDA QUE FORMA PARTE DE NUESTRO HERMOSISIMO
ECUADOR, AHÍ VA OTRA TAB,
SALUDOS CORVUS

GRACIAS MI CHIQUITA POR TU COMPAÑIA INCONDICIONAL AL SACAR ESTA
CANCION Y POR ESCUCHAR LOS ERRORES TE MANDO UN BESOTE


ACORDES EN QUINTAS UTILIZADOS EN ESTA CANCION

    F#   G   A   B    E
e------------------------------------------------------------
B------------------------------------------------------------
G------------------------------------------------------------
D----4---5---7---9----2--------------------------------------
A----4---5---7---9----2--------------------------------------
E----2---3---5---7----0--------------------------------------


INTRO:

e------------------------------------------------------------
B------------------------------------------------------------
G------------------------------------------------------------
D---9---7---9---7---5---4---5---4----2--4--------------------
A---9---7---9---7---5---4---5---4----2--4--------------------
E---7---5---7---5---3---2---3---2----0--2--------------------


   Hipnotizaste lentamente mi alma
e------------------------------------------------------------
B------------------------------------------------------------
G------------------------------------------------------------
D----9-------------------------7-----------------------------
A----9-------------------------7---9-----7-----9-------------
E----7-------------------------5-----5-5---5-5---------------

hoy lo único que quiero es amarte
e------------------------------------------------------------
B------------------------------------------------------------
G------------------------------------------------------------
D----9-------------------------7-----------------------------
A----9-------------------------7---9-----7-----9-------------
E----7-------------------------5-----5-5---5-5---------------

tan solo te levantas
e------------------------------------------------------------
B------------------------------------------------------------
G------------------------------------------------------------
D---5--------------------------------------------------------
A---5-----------5-4------------------------------------------
E---3--------------------------------------------------------

y te vas dejándome
e------------------------------------------------------------
B------------------------------------------------------------
G------------------------------------------------------------
D---4--------------------------------------------------------
A---4-----------5-4------------------------------------------
E---2--------------------------------------------------------

sin saber si algún día
e------------------------------------------------------------
B------------------------------------------------------------
G------------------------------------------------------------
D---5--------------------------------------------------------
A---5-----------5-4------------------------------------------
E---3--------------------------------------------------------

serás solo para mi
e------------------------------------------------------------
B------------------------------------------------------------
G------------------------------------------------------------
D---4--------------------------------------------------------
A---4--------------------------------------------------------
E---2--------------------------------------------------------


Encerrado en mi habitación
e------------------------------------------------------------
B------------------------------------------------------------
G------------------------------------------------------------
D---9---------------------------------------------------------
A---9---------------------------------------------------------
E---7---------------------------------------------------------

sin saber que voy a hacer
e------------------------------------------------------------
B------------------------------------------------------------
G------------------------------------------------------------
D----7-------------------------------------------------------
A----7--------------------9-----7-----9----------------------
E----5----------------------5-5---5-5------------------------

salgo de mi encierro
e------------------------------------------------------------
B------------------------------------------------------------
G------------------------------------------------------------
D---9---------------------------------------------------------
A---9---------------------------------------------------------
E---7---------------------------------------------------------

para buscar tu corazón
e------------------------------------------------------------
B------------------------------------------------------------
G------------------------------------------------------------
D----7-------------------------------------------------------
A----7--------------------9-----7-----9----------------------
E----5----------------------5-5---5-5------------------------

En cada paso que doy
e------------------------------------------------------------
B------------------------------------------------------------
G------------------------------------------------------------
D---5--------------------------------------------------------
A---5-----------5-4------------------------------------------
E---3--------------------------------------------------------


cada sitio que voy
e------------------------------------------------------------
B------------------------------------------------------------
G------------------------------------------------------------
D---4--------------------------------------------------------
A---4-----------5-4------------------------------------------
E---2--------------------------------------------------------

solo veo tu imagen
e------------------------------------------------------------
B------------------------------------------------------------
G------------------------------------------------------------
D---5--------------------------------------------------------
A---5-----------5-4------------------------------------------
E---3--------------------------------------------------------

y no se que voy a hacer
e------------------------------------------------------------
B------------------------------------------------------------
G------------------------------------------------------------
D---4-4-4-4-4------------------------------------------------
A---4-4-4-4-4------------------------------------------------
E---2-2-2-2-2------------------------------------------------

En cada paso que doy
e------------------------------------------------------------
B------------------------------------------------------------
G-------------9----------------------------------------------
D---9--9------9----------------------------------------------
A---9--9------7----------------------------------------------
E---7--7-----------------------------------------------------

cada sitio que voy
e------------------------------------------------------------
B------------------------------------------------------------
G-------------9----------------------------------------------
D---9--9------9----------------------------------------------
A---9--9------7----------------------------------------------
E---7--7-----------------------------------------------------

solo veo tu imagen
e------------------------------------------------------------
B------------------------------------------------------------
G------------------------------------------------------------
D--9------5--------------------------------------------------
A--9------5--------------------------------------------------
E--7------3--------------------------------------------------

y no se que voy a hacer
e------------------------------------------------------------
B------------------------------------------------------------
G------------------------------------------------------------
D--2------------4--------------------------------------------
A--2------------4--------------------------------------------
E--0------------2--------------------------------------------


e------------------------------------------------------------
B------------------------------------------------------------
G------------------------------------------------------------
D------------------------------------------------------------
A---9-----10-----9--5-----7-----5--7-----9-----7--4-----5-----4-
E-----7-7----7-7-----3-3---3-3-------5-5---5-5------2-2---2-2--- (x2)

 Sin saber que hacer
e------------------------------------------------------------
B------------------------------------------------------------
G------------------------------------------------------------
D-9-----------5----------------------------------------------
A-9-----------5----------------------------------------------
E-7-----------3----------------------------------------------

en medio de tanta gente
e------------------------------------------------------------
B------------------------------------------------------------
G------------------------------------------------------------
D---7-------4------------------------------------------------
A---7-------4------------------------------------------------
E---5-------2------------------------------------------------

estoy perdido en esta maldita ciudad
e------------------------------------------------------------
B------------------------------------------------------------
G------------------------------------------------------------
D-9-----5-------7-------4------------------------------------
A-9-----5-------7-------4------------------------------------
E-7-----3-------5-------2------------------------------------

e------------------------------------------------------------
B------------------------------------------------------------
G------------------------------------------------------------
D------------------------------------------------------------
A---9-----10-----9--5-----7-----5--7-----9-----7--4-----5-----4-
E-----7-7----7-7-----3-3---3-3-------5-5---5-5------2-2---2-2--- (x2)

Sin ti mi vida no tiene sentido
e------------------------------------------------------------
B------------------------------------------------------------
G------------------------------------------------------------
D-9-----5-------7-------4------------------------------------
A-9-----5-------7-------4------------------------------------
E-7-----3-------5-------2------------------------------------

eres todo lo que tengo en esta maldita ciudad
e------------------------------------------------------------
B------------------------------------------------------------
G------------------------------------------------------------
D-9---------5---------7-------4------------------------------------
A-9---------5---------7-------4------------------------------------
E-7---------3---------5-------2------------------------------------

       maldita ciudad
e------------------------------------------------------------
B------------------------------------------------------------
G------------------------------------------------------------
D--5-5--5--5-----------------------------------------------------
A--5-5--5--5-----------------------------------------------------
E--3-3--3--3-----------------------------------------------------
       maldita ciudad
e------------------------------------------------------------
B------------------------------------------------------------
G------------------------------------------------------------
D--7-7--7--7-------------------------------------------------
A--7-7--7--7-------------------------------------------------
E--5-5--5--5-------------------------------------------------

Acompañamiento del solo:
e------------------------------------------------------------
B------------------------------------------------------------
G------------------------------------------------------------
D-9-----5-------7-------4------------------------------------
A-9-----5-------7-------4------------------------------------
E-7-----3-------5-------2------------------------------------


Cualquier comentario o sugerencia me escriben al mail
Gracias
¡!!!Que Viva Ecuador!!!!!!

            
            
Suggest correction
Creating personal tab
Creating personal tab
You can edit any tab online and save it as your Personal.

You can edit, replace or remove any tab part or add personal notes – all changes will be seen only by you.

Personal tabs can be accessed anytime from any device, even offline.
Learn more »
Give kudos to tab author, rate the tab!
1 2 3 4 5
comments
print report bad tab
guest
Wanna post a correction for this tab? Suggest correction