Oops, an error
Loading. Please wait.

Sueñas Con Tanto tab

16 views 1 this week
no commentswrite comment
1 2 3 4 5
3 more votes to show rating
add to favorites
×
Save as Personal and add changes to this tab that will be seen only by you. Learn more ›
×
You can save this tab as Personal to edit and correct it or add notes. All changes will be seen only by you. Learn more »
launch autoscroll
font size
0
reset
how to read this tab
guitar tuner
edit
Autoscroll
slow
fast
+/-
esc
set tempo
stop
Una más para esta actualización. No he podido sacar muchas más por los
estudios, a ver si para la próxima actualización subo más.

Intro:

     D#5 (mute)          A#5 (mute)
e |-------------------|-------------------|
B |--8-----8-----8----|--9-----9-----9----|
G |----8-8---8-8---8--|----9-9---9-9---9--|
D |-------------------|-------------------|
A |-------------------|-------------------|
E |-------------------|-------------------|


D#            A#       Cm               G#
Dime qué ha pasado, no digas que te has olvidado
D#           A#     G#
Y ahora volveré a caer
D#            A#          Cm      G#
Y ya no tengo tiempo, he oído demasiado
D#            A#        G#
No tengo ya ganas de creer


G#                 A#         D#            E#
Que ha sido un mal trago, que no era lo esperado
G#              A#      D#  D#sus D#
Que tú no me querías perder
G#           A#          D#           E#
Y a mí no me mientas, me sé todas tus juergas
G#            A#        (D# D#sus) x4
Creías que no lo iba a saber


        D#5     A#5        C5    G#5
Por eso tú, que sueñas con tanto
   D#5          A#5         G#5*
No tengas miedo que me alejaré
     D#5      A#5        C5    G#5
Tu sabrás, te quiero demasiado
D#5         G#5       A#5
Si me dices ven, volveré


        D#5     A#5        C5    G#5
Por eso tú, que sueñas con tanto
   D#5          A#5         G#5*
No tengas miedo que me alejaré
     D#5      A#5        C5    G#5
Tu sabrás, te quiero demasiado
D#5         G#5       A#5
Si me dices ven, volveré


D#                A#      Cm               G#
Niña, no es el destino, será que tú has querido
D#              A#       G#
Si no, se lo preguntas a él
D#           A#       Cm        G#
He sido un muñeco, protagonista de tu juego
D#         A#          G#
Pero ya no sé lo que hacer


G#                 A#         D#            E#
Que ha sido un mal trago, que no era lo esperado
G#              A#      D#  D#sus D#
Que tú no me querías perder
G#5*         A#5*        D#5*         E#5*
Y a mí no me mientas, me sé todas tus juergas
G#5*          A#5*      D#5*
Creías que no lo iba a saber


        D#5     A#5        C5    G#5
Por eso tú, que sueñas con tanto
   D#5          A#5         G#5*
No tengas miedo que me alejaré
     D#5      A#5        C5    G#5
Tu sabrás, te quiero demasiado
D#5         G#5       A#5
Si me dices ven, volveré


Puente:

e |------------------------|
B |--9--x-x--8--x-x--8--x--| x4
G |--8--x-x--8--x-x--8--x--|
D |------------------------|
A |------------------------|
E |------------------------|

e |----------------------------------------------------|
B |--8--x--8--x--9--x--9--x--------x------x--9---------|
G |--8--x--8--x--8--x--8--x--10-8--x--10--x--8--x--10--|
D |---------------------------8-8------8--------x---8--|
A |----------------------------------------------------|
E |----------------------------------------------------|


e |---------------------------------------|
B |-----x--9--x--9--x---------x--9--x--9--|
G |--8--x--8--x--8--x--10--8--x--8--x--8--|
D |--8------------------8--8--------------|
A |---------------------------------------|
E |---------------------------------------|


e |--------------------------------------------|
B |--11-11-11-11-11-11-11-11--9-9-9-9-9-9-9-9--|
G |---8--8--8--8--8--8--8--8--8-8-8-8-8-8-8-8--|
D |--------------------------------------------|
A |--------------------------------------------|
E |--------------------------------------------|

e |---------------------------|
B |--11-11-11-11-11-11-11-11--| x2
G |---8--8--8--8--8--8--8--8--|
D |---------------------------|
A |---------------------------|
E |---------------------------|


        D#5     A#5        C5    G#5
Por eso tú, que sueñas con tanto
   D#5          A#5         G#5*
No tengas miedo que me alejaré
     D#5      A#5        C5    G#5
Tu sabrás, te quiero demasiado
D#5         G#5       A#5
Si me dices ven, volveré

D#
Oh, volveré, oh, volveré, oh, volveré
G#             D#
Si tú me dices ven


Final: D#5 - G#5 (x3)
       D#5 - A#5 - G#5


+--------------------+
+ Acordes utilizados +
+--------------------+

D#    A#    Cm    G#   D#sus   E#    D#5   A#5   C5    G#5   E#5
-6-   -6-   -3-   -4-   -6-   - 8-   -x-   -x-   -x-   -x-   -x-
-8-   -6-   -4-   -4-   -9-   -10-   -x-   -x-   -x-   -x-   -x-
-8-   -7-   -5-   -5-   -8-   -10-   -8-   -x-   -5-   -x-   -10-
-8-   -8-   -5-   -6-   -8-   -10-   -8-   -8-   -5-   -6-   -10-
-6-   -8-   -3-   -6-   -6-   - 8-   -6-   -8-   -3-   -6-   - 8-
-x-   -6-   -x-   -4-   -x-   - x-   -x-   -6-   -x-   -4-   - x-

            
            
Suggest correction
Creating personal tab
Creating personal tab
You can edit any tab online and save it as your Personal.

You can edit, replace or remove any tab part or add personal notes – all changes will be seen only by you.

Personal tabs can be accessed anytime from any device, even offline.
Learn more »
Give kudos to tab author, rate the tab!
1 2 3 4 5
comments
print report bad tab
guest
Wanna post a correction for this tab? Suggest correction