Oops, an error
Loading. Please wait.

Pídeme tab

23 views 1 this week
no commentswrite comment
1 2 3 4 5
3 more votes to show rating
add to favorites
×
Save as Personal and add changes to this tab that will be seen only by you. Learn more ›
×
You can save this tab as Personal to edit and correct it or add notes. All changes will be seen only by you. Learn more »
launch autoscroll
font size
0
reset
how to read this tab
guitar tuner
edit
Autoscroll
slow
fast
+/-
esc
set tempo
stop
Intro

es lo mismo hagan la ke se les haga mas facil
             A                       F#m
e-|------------------------|------------------------|
B-|------------------------|--------0---------0-----|
G-|----2---4-2---2---4-2---|----2-----2---2-----2---|
D-|--2---2-----2---2-----2-|--2---2-----2---2-----2-|
            D                    E
e-|------------------------|------------|
B-|-------0---------0------|-------2----|
G-|----2----2----2----2----|---4-----4--|
D-|--0---0-----0---2----0--|-2---2------|

A E F#m D E A

e-|--------------------------------------------------------|
B-|--5-3-2-2-3-5-5-5-5-5-5-5------2-5-5-3-2---2--3-2-------|
G-|--------------------------4--4-----------4--------4-2---|
D-|--------------------------------------------------------|


A
Pideme
               F#m
Que aqui me quede
                     D
disfrutando tus caricias
                E
disfrutando de tu amor

A
Pideme
               F#m
que toque el cielo
                   D
que atraviese el univero
                 E
oh que toque el mismo sol

D
oh pideme
             E
que por ti muera y morire
          A
que hasta lo imposible hare
        F#m
para conservar tu amor
Bm                  D
que hasta lo inimagibale
   D                       E
llorare si tu me das tu corazón

A
pideme
             E
que yo te quiera
                     F#m
ser tu sombra y tu guardian
                       D
como un angel que te cuide
        E
en tu vida

A
pideme
              E
que ati me entrege
                     F#m
para siempre y yo lo hare
                     D       E          A
pideme que aqui me quede y feliz me quedare

A E F#m D E A

ps aki les dejo la correcciòn de la anterior porke
nadamas lo primero tiene bien lo demas son puras mentiras
pos ojala les guste sta kn madre esta rola
pz esta c la diko a mi kinky
larizza te kiero un buen
ps voten pliz

            
            
Suggest correction
Creating personal tab
Creating personal tab
You can edit any tab online and save it as your Personal.

You can edit, replace or remove any tab part or add personal notes – all changes will be seen only by you.

Personal tabs can be accessed anytime from any device, even offline.
Learn more »
Give kudos to tab author, rate the tab!
1 2 3 4 5
comments
print report bad tab
guest
Wanna post a correction for this tab? Suggest correction