Oops, an error
Loading. Please wait.

Dijo Sí tab

19 views 1 this week
no commentswrite comment
1 2 3 4 5
3 more votes to show rating
add to favorites
×
Save as Personal and add changes to this tab that will be seen only by you. Learn more ›
×
You can save this tab as Personal to edit and correct it or add notes. All changes will be seen only by you. Learn more »
launch autoscroll
font size
0
reset
how to read this tab
guitar tuner
edit
Autoscroll
slow
fast
+/-
esc
set tempo
stop
  D: 000232
F#m: 002220
  B: 224432
  G: 320003
  A: 002220


[* INTRO DE VIOLIN -2 VECES- *]
         D                   A                    B              G         
E-||---------------------------------------------------------------------------
B-||-----7/10-10-10-10---7---------10------------------------------------------
G-||-----------------------7-----9----9---7-6----------------------------------
D-||---7---------------------7----------------7--7/9--9-9-9--7-----------------
A-||-----------------------------------------------------------9-10------------
E-||---------------------------------------------------------------------------


    D
Si tu no estás me siento triste
     F#m
Quiero decirte que te quiero
   B
Y sólo te pido que me dejes
G                 A A
Acercarme a ti

 D
Ven y espera un momento
 F#m
Deja ver tu hermoso cuerpo
  B
Y esos ojos que miran solo
 G           
Solo para mi


A          B            G               D
Oh, no me digas que no voy a tener tu amor
A          B            G
Oh, no me digas    que no tendré tu amor
      D
Dijo sí,
       A
Hice guao!
       B
Preguntó 
           G          A     D
Si un día yo la podría olvidar
     A
Eso no,
      B             (A)  G   
Eres la mujer de mis sueños
      D
Dijo sí


[* REPETIR INTRO *]


    D
Entiendo lo que ha sucedido
    F#m
Mi corazón está hecho un lío
     B
Sin ti mi vida es un infierno
 G                 A A
Ten piedad de mi

          D              
Tras mi miedo se hace un tormento
     F#m    
Si pienso que ya no te tengo
    B
Y cuando te pregunto solo
  G
Que será de mi


A          B            G               D
Oh, no me digas que no voy a tener tu amor
A          B            G
Oh, no me digas    que no tendré tu amor
      D
Dijo sí,
       A
Hice guao!
       B
Preguntó 
          G              A     D
Si algún día yo la podría olvidar
     A
Eso no,
      B              (A) G   
Eres la mujer de mis sueños
      D
Dijo sí


[* SOLO DE GUITARRA *]
       D               A                     B                                G
E-||---12/14-----17--12/14--17--14\12------12/14-12----12-----12-------------------------------------
B-||------------------------------------------------15-----15----15---12--------12-15--12-12-12\10---
G-||---------------------------------------------------------------------14--14----------------------
D-||-------------------------------------------------------------------------------------------------
A-||-------------------------------------------------------------------------------------------------
E-||-------------------------------------------------------------------------------------------------

       D                     A           
E-||---------17----------------------------------------------------
B-||------15----15------15-15/17------15/17-15--17--15-17--15-17---
G-||---14------------14--------------------------------------------
D-||---------------------------------------------------------------
A-||---------------------------------------------------------------
E-||---------------------------------------------------------------

            B                   G                                  A
E-||------------17--------17--------17--------17------------------------
B-||---15-17/19-----17/19-----17/19-----17/19-------17/19---17/19--17---
G-||--------------------------------------------------------------------
D-||--------------------------------------------------------------------
A-||--------------------------------------------------------------------
E-||--------------------------------------------------------------------

         A
Pues mi miedo se hace un tormento
       G           A          D
Y al preguntarle a ella dijo sí
       A
Hice guao!
       B
Preguntó 
           G          A     D
Si un día yo la podría olvidar
     A
Eso nooo,
      B              (A) G   
(eres la mujer de mis sueños)
      D  A  B  G
Dijo sí
      D  A  B  G
Dijo sí


[* OUTTRO DE GUITARRA ELECTRICA *]
         D                   A             B                         G         
E-||------------------7-------------------10-9---------10-9---------------10------
B-||-----7/10-10---------7\5-------------------12-10--------12-10---10-12----12---
G-||------------------------------------------------------------------------------
D-||---7--------------------------------------------------------------------------
A-||------------------------------------------------------------------------------
E-||------------------------------------------------------------------------------

         D                   A             B                                                           
E-||------------------7-------------------10-9-------10-9-------10-9-------10-9-------------
B-||-----7/10-10---------7\5-------------------12-10------12-10------12-10------12-10-------
G-||-----------------------------------------------------------------------------------12---
D-||---7------------------------------------------------------------------------------------
A-||----------------------------------------------------------------------------------------
E-||----------------------------------------------------------------------------------------

       G                    G             D D               
E-||--------------------------------------------
B-||-----8---7-8-7-8-7------8---7-8-7-8-7-------
G-||-------------------7------------------7-7---
D-||--------------------------------------------
A-||--------------------------------------------
E-||--------------------------------------------


### Tablatura de: Enrique Moraño ###
### Sevilla [España] para ATAME  ###
###     emorano@      ###

            
            
Suggest correction
Creating personal tab
Creating personal tab
You can edit any tab online and save it as your Personal.

You can edit, replace or remove any tab part or add personal notes – all changes will be seen only by you.

Personal tabs can be accessed anytime from any device, even offline.
Learn more »
Give kudos to tab author, rate the tab!
1 2 3 4 5
comments
print report bad tab
guest
Wanna post a correction for this tab? Suggest correction