Oops, an error
Loading. Please wait.

El Niño Popis tab

37 views 1 this week
no commentswrite comment
1 2 3 4 5
3 more votes to show rating
add to favorites
×
Save as Personal and add changes to this tab that will be seen only by you. Learn more ›
×
You can save this tab as Personal to edit and correct it or add notes. All changes will be seen only by you. Learn more »
launch autoscroll
font size
0
reset
how to read this tab
guitar tuner
edit
Autoscroll
slow
fast
+/-
esc
set tempo
stop
                                      B   C
A mí me dicen el niño popis          (you you)
                                      B   C
dicen que soy un desenfrenado        (you you)
                                      B   C
porque uso copete abultado           (you you)
                                      B   C
y dicen que nunca me han amado       (you you)

                                     F
Pero nadie sabe que por ahí anda una nena que amo yo
la nena popis le dicen al pasar
        C
es my rebelde y se pone a pachanguear
        G7        F                 C
mi nena popis     yo te invito a bailar

        C
Trae un peinado que me hace a mí gritar
si ella me mira se pone a tambalear
        F
mi niña popis te invito yo a bailar
     C
mira chamaca te quiero yo besar
        G7        F             C
mi nena popis     yo te quiero amar

   C
E|-8-6-8-6--8-8-8-8-8-8-|-8-6-8-8-8--8-8-8-8-8-8-|-
B|-8-6-8-6--8-8-8-8-8-8-|-8-6-8-8-8--8-8-8-8-8-8-|-
G|----------------------|------------------------|-
D|----------------------|------------------------|-
A|----------------------|------------------------|-
E|----------------------|------------------------|-

     F                            C
  E|-11-8-11-8--11-8-11-10-8-|-10-8-6/8-8-8-8-6/8-8-8-8-8-8-|-
  B|-10-8-10-8--10-8-10-10-8-|-10-8-6/8-8-8-8-6/8-8-8-8-8-8-|-
  G|-------------------------|------------------------------|-
  D|-------------------------|------------------------------|-
  A|-------------------------|------------------------------|-
  E|-------------------------|------------------------------|-
       G7               F                C
    E|-3-3--5-3-6-5-3-|-1-1--3-1-4-3-1-|----------------|
    B|-3--------------|-1--------------|-5-5--5-5-5-5-5-|
    G|-4--------------|-2--------------|-5-5--5-5-5-5-5-|
    D|----------------|----------------|----------------|
    A|----------------|----------------|----------------|
    E|----------------|----------------|----------------|

          C
Mira este paso que acabo de sacar
te enchuecas todo y te pones a temblar
     F
mira chamaca te lo quiero enseñar
     C
mira chamaca te invito yo a bailar
        G7        F              C
mi nena popis     yo te quiero besar   ¡yeah!

   C
E|-7/8-8-8-8-8-8-|-7/8-8-8-8-8-8-|-7/8-7/8-7/8-8-8-8-8-8-|-
B|-7/8-8-8-8-8-8-|-7/8-8-8-8-8-8-|-7/8-7/8-7/8-8-8-8-8-8-|-
G|---------------|---------------|-----------------------|-
D|---------------|---------------|-----------------------|-
A|---------------|---------------|-----------------------|-
E|---------------|---------------|-----------------------|-

     F                                  C
  E|-11-11-11-11-8-|-11-11-11-11-11-8-|-7/8-7/8-7/8-8-8-8-8-8-|-
  B|-10-10-10-10-8-|-10-11-11-11-11-8-|-7/8-7/8-7/8-8-8-8-8-8-|-
  G|---------------|------------------|-----------------------|-
  D|---------------|------------------|-----------------------|-
  A|---------------|------------------|-----------------------|-
  E|---------------|------------------|-----------------------|-

       G7               F                C
    E|-3-3--5-3-6-5-3-|-1-1--3-1-4-3-1-|----------------|-
    B|-3--------------|-1--------------|-5-5--5-5-5-5-5-|-
    G|-4--------------|-2--------------|-5-5--5-5-5-5-5-|-
    D|----------------|----------------|----------------|-
    A|----------------|----------------|----------------|-
    E|----------------|----------------|----------------|-
        C                                  F                 C
E|-----------------|-----------------|----------------|-----------------|-
B|------5-4-5-4-5-|------5-4-5-4-5-|-----4-3-4-3-4-|------5-4-5-4-5-|-
G|-0-2--5-4-5-4-5-|-0-2--5-4-5-4-5-|-0-2-5-4-5-4-5-|-0-2--5-4-5-4-5-|-
D|-----------------|-----------------|----------------|-----------------|-
A|-----------------|-----------------|----------------|-----------------|-
E|-----------------|-----------------|----------------|-----------------|-

          G7           F             C
  E|-------------------------------|----------------|
  B|------6-6-6-6-6-6--4-4-4-4-4-4-|-5-5--5-5-5-5-5-|
  G|-0-2--4-4-4-4-4-4--5-5-5-5-5-5-|-5-5--5-5-5-5-5-|
  D|-------------------------------|----------------|
  A|-------------------------------|----------------|
  E|-------------------------------|----------------|

               C
Mira este paso que acabo de sacar
te enchuecas todo y te pones a temblar
        F
mira chamaca te lo quiero enseñar
        C
mira chiquilla te invito yo a bailar
             G          F            C   B   C
mi nena popis,        yo te quiero besar


Riffs de fondo.

Esta primera progresión se toca sólo una vez:

   F                C                G7               C
E|----------------|----------------|----------------|----------------|
B|-6-6--6-6-6-6-6-|-5-5--5-5-5-5-5-|-6-6--4-4-4-4-4-|-5-5--5-5-5-5-5-|
G|-5-5--5-5-5-5-5-|-5-5--5-5-5-5-5-|-4-4--5-5-5-5-5-|-5-5--5-5-5-5-5-|
D|----------------|----------------|----------------|----------------|
A|----------------|----------------|----------------|----------------|
E|----------------|----------------|----------------|----------------|

luego todo es así:

   C                                 F                C
E|----------------|----------------|----------------|----------------|-
B|-5-5--5-5-5-5-5-|-5-5--5-5-5-5-5-|-4-4--4-4-4-4-4-|-5-5--5-5-5-5-5-|-
G|-5-5--5-5-5-5-5-|-5-5--5-5-5-5-5-|-5-5--5-5-5-5-5-|-5-5--5-5-5-5-5-|-
D|----------------|----------------|----------------|----------------|-
A|----------------|----------------|----------------|----------------|-
E|----------------|----------------|----------------|----------------|-

              G7   F           C
           E|----------------|----------------|
           B|-6-6--4-4-4-4-4-|-5-5--5-5-5-5-5-|
           G|-4-4--5-5-5-5-5-|-5-5--5-5-5-5-5-|
           D|----------------|----------------|
           A|----------------|----------------|
           E|----------------|----------------|

                               C      B C
y el último compás es:   ?  E|------------|
                         ?  B|-5-5--5-4-5-|
                         ?  G|-5-5--5-4-5-|
                         ?  D|------------|
                         ?  A|------------|
                         ?  E|------------|

            
            
Suggest correction
Creating personal tab
Creating personal tab
You can edit any tab online and save it as your Personal.

You can edit, replace or remove any tab part or add personal notes – all changes will be seen only by you.

Personal tabs can be accessed anytime from any device, even offline.
Learn more »
Give kudos to tab author, rate the tab!
1 2 3 4 5
comments
print report bad tab
guest
Wanna post a correction for this tab? Suggest correction