Oops, an error
Loading. Please wait.

Jamás tab

13 views 1 this week
no commentswrite comment
1 2 3 4 5
3 more votes to show rating
add to favorites
×
Save as Personal and add changes to this tab that will be seen only by you. Learn more ›
×
You can save this tab as Personal to edit and correct it or add notes. All changes will be seen only by you. Learn more »
launch autoscroll
font size
0
reset
how to read this tab
guitar tuner
edit
Autoscroll
slow
fast
+/-
esc
set tempo
stop
GRAN CANCION DE CRETINOS

CON PALM MUTE...

B                   G#
 OTRA VEZ EL DIA ME VUELVE A SORPRENDER
E                     F#
 OTRA VEZ LA NOCHE ME VUELVE A ENLOQUECER
B                     G#
 OTRA VEZ HE VUELTO A EXTRAÑAR TU PIEL
E                     F#
 OTRA VEZ EH VUELTO A NO ESTAR EN PIE


             B                  G#
 NADA ES PARA SIEMPRE DIJISTE AL PARTIR
         C#                   F#
 PAREDES PINTADAS HUMO EN LA GRAN CIUDAD
          B                 G#
 BOTELLAS VACIAS EN UN PAREDON
           C#                  F#
 CORAZONES ROTOS COSAS QUE NO VOLVERAN JAMAS

SOLO

---------------------------------------------------------------------------
----------11b---------11b-14-12-11-----------------------------------------
-----11-13--------11-13----------13-11-10--------------------------10-11-13
-/9-12--------/9-12---------------------13-11-10------------10-11-13-------
-----------------------------------------------13-11-10-11-13--------------
---------------------------------------------------------------------------

--------------------------------------------------------------------------
----14fbr-12-14fbr-12-14fbr-12/11-11h12p11-12-14-12-11--------------------
14/15------------------------------------------------13-11-10-------------
------------------------------------------------------------13-11-10------
-------------------------------------------------------------------13-11-10
---------------------------------------------------------------------------


             B                  G#
 NADA ES PARA SIEMPRE DIJISTE AL PARTIR
         C#                   F#
 PAREDES PINTADAS HUMO EN LA GRAN CIUDAD
          B                 G#
 BOTELLAS VACIAS EN UN PAREDON
           C#                  F#
 CORAZONES ROTOS COSAS QUE NO VOLVERAN JAMAS


CON PALM MUTE

(B G# C# F#) X4


SIGNOS
/ - SLIDE
B - BEND
fbr - FULL BEND N RELEASE


VA PARA MI EX-NOVIA ANA LAURA (SABES T.A.M.A.L. JEJE)
Y ARRIBA EL PANK ROCK

            
            
Suggest correction
Creating personal tab
Creating personal tab
You can edit any tab online and save it as your Personal.

You can edit, replace or remove any tab part or add personal notes – all changes will be seen only by you.

Personal tabs can be accessed anytime from any device, even offline.
Learn more »
Give kudos to tab author, rate the tab!
1 2 3 4 5
comments
print report bad tab
guest
Wanna post a correction for this tab? Suggest correction