Oops, an error
Loading. Please wait.

Mírame Hoy tab

8 views 1 this week
no commentswrite comment
1 2 3 4 5
3 more votes to show rating
add to favorites
×
Save as Personal and add changes to this tab that will be seen only by you. Learn more ›
×
You can save this tab as Personal to edit and correct it or add notes. All changes will be seen only by you. Learn more »
launch autoscroll
font size
0
reset
how to read this tab
guitar tuner
edit
Autoscroll
slow
fast
+/-
esc
set tempo
stop
Que buena canción, me hace recordar mucho la forma de actuar de
alguien a quien a pesar de todo le quiero mucho...

Intro: F  G  Em  Am (x3)
       F  G  Am

             F
No sé si es más difícil
G                 Em              Am
que yo pueda ver bailar a un maniquí
          F
o verte a ti doblegar
G             Em        Am
tu orgullo y regresar a mi
         F
no sé si es más fácil
        G               Em            Am
que yo pueda noquear a evan derjol y phill
   F                     G               Am
o doblegar mi orgullo y pedirte vuelve a mi

          F
por culpa del orgullo
       G            Em       Am
es que tiramos todo a la basura
                  F
sin pensar que en el amor
       G          Em        Am
el ego era lo único por desechar
        F
el día que nos despedimos
      G                  Em     Am
jure ni siquiera volverte a pensar
                    F
pero en tu ausencia decir vuelve
            G               Am
resulto más fácil que respirar

       F    G
mirame hoy
          Em    Am
mira aquí estoy
           F            G          Em      Am
diciendo vuelve o explotará mi corazón oh oh

          F    G
dejemos atrás
        Em   Am
la vanidad
            F                   G         Am
sé que me quieres ya ves no es fácil olvidar


          F
vanidad es el disfraz
           G                 Em        Am
que oculta la verdad y nos hace disimular
              F
pero los dos sabemos que
      G                 Em          Am
para vivir sin amar no se es mejor morir
             F
no neguemos más que sentirnos
     G                   Em   Am
la piel es nuestra gran necesidad
                    F
que cuando estamos juntos
                 G           Am
preferimos desnudarnos no fingir


       F    G
mirame hoy
          Em    Am
mira aquí estoy
           F            G          Em      Am
diciendo vuelve o explotará mi corazón oh oh

          F    G
dejemos atrás
        Em   Am
la vanidad
            F                   G        Em   Am
sé que me quieres ya ves no es fácil olvidar...


Solo

e|------------------------------------------------------------
B|------------------------------------------------------------
G|----------7h9-7------7-----------------------------9-7------
D|--------7-------10-9---10-10-9-----------7----7-10-----10---
A|--7-10-------------------------10-7-10-7---10---------------
E|------------------------------------------------------------

e|------------------------------------------------8-8-10-8-7--
B|-8------8------10--8-----10-8-10-8-----10-10-10-----------10
G|---10-9---10-9------10-9----------10-9----------------------
D|------------------------------------------------------------
A|------------------------------------------------------------
E|------------------------------------------------------------

e|---------7----~12-12-12-15-17-17------17-15-15-15-15-15-----
B|-8--8-10---8---------------------------------------------18-
G|--9-----------------------------17-17-----------------------
D|------------------------------------------------------------
A|------------------------------------------------------------
E|------------------------------------------------------------

e|----17-19-17-19-17-15-15-17-19-17-19--17~~-|
B|-17----------------------------------------|
G|-------------------------------------------|
D|-------------------------------------------|
A|-------------------------------------------|
E|-------------------------------------------|

Am
Con esta canción me quito el disfraz
Em
y doy el primer paso para reencontrar
F
todo lo bello que un dia nos unió
Dm
da el otro paso tu quitate el disfraz
    G           G#
y volvamos amar aaaaa

     F#    G#
mírame hoy
         Fm      A#m
mira aquí estoy
          F#
diciendo vuelve
         G#        Fm      A#m
o explotará mi corazón oh oh
         F#    G#
dejemos atrás
      Fm    A#m
la vanidad
            F#
sé que me quieres
             G#       Fm    A#m
ya ves no es fácil olvidar
F#         G#     Fm     A#m
no es fácil olvidar
F#              G#              Fm  
no no puedo por mas que intento
   A#m            F#
te llevo en el corazón
        G#        Fm     A#m
no es fácil olvidar
          F#                  G#
aunque el orgullo me quiere callar
        Fm           A#m         F#
mirame aquí hoy queriendo regresar
       G#         Fm    A#m
no es fácil olvidar
F#           G#           Fm       A#m    F#-G#-Fm  -A#m
no no puedo aunque lo quiero te sigo amando

     F#    G#   Fm    A#m
e:I--2--I--4--I--1--I--1--I
B:I--2--I--4--I--1--I--2--I
G:I--3--I--5--I--1--I--3--I
D:I--4--I--6--I--3--I--3--I
A:I--4--I--6--I--3--I--1--I
E:I--2--I--4--I--1--I--1--I

Cualquier duda, comentario, rectificación, invitación etc.
    )s(
Suggest correction
Creating personal tab
Creating personal tab
You can edit any tab online and save it as your Personal.

You can edit, replace or remove any tab part or add personal notes – all changes will be seen only by you.

Personal tabs can be accessed anytime from any device, even offline.
Learn more »
Give kudos to tab author, rate the tab!
1 2 3 4 5
comments
print report bad tab
guest
Wanna post a correction for this tab? Suggest correction