Oops, an error
Loading. Please wait.

Después De Tí, Qué? tab

61 views 1 this week
no commentswrite comment
1 2 3 4 5
3 more votes to show rating
add to favorites
×
Save as Personal and add changes to this tab that will be seen only by you. Learn more ›
×
You can save this tab as Personal to edit and correct it or add notes. All changes will be seen only by you. Learn more »
launch autoscroll
font size
0
reset
how to read this tab
guitar tuner
edit
Autoscroll
slow
fast
+/-
esc
set tempo
stop
Ahí les va esta transcripción... le agregué el intro y el solo del
medio además de que corregí varios errores... espero les guste =D


INTRO:

   C                   B/D               Am
e|-0-------0---------|-----3-----------|---------------------|
B|-----1h3---3-1h3p1-|-3-----------3---|-1-----0-1-0h1p0---0-|
G|---0---------------|---0-----0-------|-----2-----------2---|
D|-------------------|-------0---0---0-|---2-----------------|
A|-3---------3-------|-2---------------|-0-------0-----------|
E|-------------------|-----------------|---------------------|

   Em                F                   C
e|---0---------0---|-------------------|---------------|
B|---------0-------|-------------------|-----1-------1-|
G|-------0-------0-|-2-----0-2-0h2p0---|-0-------0-----|
D|-----2-----2-----|-----3-----------3-|-----------2---|
A|-----------------|---3---------------|-------3-------|
E|-0---------------|-1-------1---------|---0-----------|

     A#    [A]        G           |
e|-0-0---------|------------------|
B|---3---3~-3~-|-1~-1---0-------0-|    Se
G|-------3~----|----0-------2-----|  repite
D|-----3-------|------0---0-0-0---|    y
A|---1------0--|------------------|  luego:
E|-------------|----3-------------|

   C
e|---------3-------3-------3-------|
B|-1-------1---1---1---1---1---1---|
G|-----0-------0-------0-------0---|
D|---2---2---2---2---2---2---2---2-|
A|-3-------------------------------|
E|---------------------------------|


[1]
C                             F              G
  Después de la tormenta, la calma reinará,
                         C              C - B/D - Am
Después de cada día, la noche llegará,
                                 Em
Después de un día de lluvia, el sol se asomará,
      Dm7           F        G
Y después de ti, ¿qué?, después de ti, ¿qué?


[1]
Después de cada instante, el mundo girará,
Después de cada año, más tiempo se nos va,
Después de un buen amigo, otro amigo encontrarás,
Y después de ti, ¿qué?, después de ti, ¿qué?


[2]
     C                G - E7     Am          Em
Después de ti no hay nada,   ni sol, ni madrugada,
Dm7            Em        F            G
  Ni lluvia, ni tormenta, ni amigos ni esperanza,
     C                G - E7     Am            Em
Después de ti no hay nada,   ni vida hay en el alma,
Dm7           Em         F              G
  Ni paz que me consuele, no hay nada si tú faltas


   C                 Em                Am
e|-0-----------0h1-|-3---------------|---------------------|
B|-------0h1h3-----|---------0-------|-1-----0-1-0h1p0---0-|
G|-----0-----------|-----0-------0---|-----2-----------2---|
D|---2-------------|---2---2---2---2-|---2-----------------|
A|-3---------------|-----------------|-0-------0-----------|
E|-----------------|-0---------------|---------------------|

   F                 Dm7        Dm7/C  A#        G
e|-----------------|-----------------|---------|---------|
B|-1-------1-------|-------------0-1-|-3-------|---0-1-3-|
G|-----2-------2---|-5-------0-2-----|-------0-|-2-------|
D|---3-------3---3-|---0-2-3---------|---2-3---|-----0---|
A|-------3---------|-5-----------3---|-1-------|---------|
E|-1---------------|-----------------|---------|-3-------|

   C                   B/D               Am
e|-0-------0---------|-----3-----------|---------------------|
B|-----1h3---3-1h3p1-|-3-----------3---|-1-----0-1-0h1p0---0-|
G|---0---------------|---0-----0-------|-----2-----------2---|
D|-------------------|-------0---0---0-|---2-----------------|
A|-3---------3-------|-2---------------|-0-------0-----------|
E|-------------------|-----------------|---------------------|

   Em                F                   C
e|---0---------0---|-------------------|---------------|
B|---------0-------|-------------------|-----1-------1-|
G|-------0-------0-|-2-----0-2-0h2p0---|-0-------0-----|
D|-----2-----2-----|-----3-----------3-|-----------2---|
A|-----------------|---3---------------|-------3-------|
E|-0---------------|-1-------1---------|---0-----------|

     A#    [A]        G             C
e|-0-0---------|------------------|---------3-------3-------3-------|
B|---3---3~-3~-|-1~-1---0-------0-|-1-------1---1---1---1---1---1---|
G|-------3~----|----0-------2-----|-----0-------0-------0-------0---|
D|-----3-------|------0---0-0-0---|---2---2---2---2---2---2---2---2-|
A|---1------0--|------------------|-3-------------------------------|
E|-------------|----3-------------|---------------------------------|


[1]
Después de haber tenido, siempre vuelves a tener,
Después de haber querido, lo intentas otra vez,
Después de lo vivido, siempre hay un después,
Y después de ti, ¿qué?, después de ti, 'qué?


[2]
Después de ti no hay nada, ni sol, ni madrugada,
Ni lluvia, ni tormenta, ni amigos, ni esperanza,
Después de ti no hay nada, ni vida hay en el alma,
Ni paz que me consuele, no hay nada si tú faltas


C   B/D   Am   Em   F   C   Dm7   G
Ay, ay, ay, ay...


[2]
Después de ti no hay nada, ni vida hay en el alma,
Ni paz que me consuele, no hay nada si tú faltas


                         C   B/D   Am    Em
Después... después de ti,        ¿qué?
           Dm7  G         C   F   C
Después de ti,    ¿qué?


ACORDES:

C     : 032010
B/D   : X2003X
Am    : X02210
Em    : 022000
F     : 133211
A#    : X13331
G     : 320033
Dm7   : XX0211
Dm7/C : X30211


Cualquier duda o comentario a mi correo plz ;)
Etor...

            
            
Suggest correction
Creating personal tab
Creating personal tab
You can edit any tab online and save it as your Personal.

You can edit, replace or remove any tab part or add personal notes – all changes will be seen only by you.

Personal tabs can be accessed anytime from any device, even offline.
Learn more »
Give kudos to tab author, rate the tab!
1 2 3 4 5
comments
print report bad tab
guest
Wanna post a correction for this tab? Suggest correction