Oops, an error
Loading. Please wait.

No Podrás tab

version 1
version 1

Whole song

452 views 1 this week
no commentswrite comment
1 2 3 4 5
3 more votes to show rating
add to favorites
×
Save as Personal and add changes to this tab that will be seen only by you. Learn more ›
×
You can save this tab as Personal to edit and correct it or add notes. All changes will be seen only by you. Learn more »
launch autoscroll
font size
0
reset
how to read this tab
guitar tuner
edit
Autoscroll
slow
fast
+/-
esc
set tempo
stop
Aki esta nuevamente con todo y el solo,gracias a Josue Berrios por transcribir
la mayor parte del solo lo ultimo lo agregue yo, el intro de la pasada tenia un error
ya esta arreglado.

Intro
*-estas notas van muteadas
|-------------------------------------------------------------------------|
|-------------------------------------------------------------------------|
|------7----88-7-5--------5----77-5-3------3-----55-3-2-----2----3----5~~-|
|-8*8*---8*----------7*7*---7*--------5*5*----5*--------3*3*--3*---3*-----|
|-------------------------------------------------------------------------|
|-------------------------------------------------------------------------|

Verso/este tambien sirve como intro si no kieren hacer el punteo
muteado                              esto antes de 'cada momento'
|---------|-------------------------|---------------------------|
|---------|-------------------------|---------------------------|
|-3-----5-|aqui lleva el final del--|-3---3/8~------------------|
|-3-3-5-5-|punteo del intro---------|-3---3/8~------------------|
|-1-3-5-3-|-------------------------|-1---1/6~------------------|
|---1-3---|-------------------------|---------------------------|


'Cada momento....'
Pre-Coro
|-----------------|
|-----------------|
|-3-8---3-----5---|
|-3-8-3-3-3-5-5-3-|X2
|-1-6-3-1-3-5-3-3-|
|-----1---1-3---1-|


'No podras olvidar...'
Coro
|-------------|
|-------------|
|-8-10-7-3----|
|-8-10-7-3-3--|
|-6-8--5-1-3--|
|----------1--|


Solo
colaboración de Josue Berrios Vega
jberrios@

H - Hammer on
P - Pull Off
S - Slide
|--------------------------------------------------------------------------------13-13----18-18-------------------|
|---------------------------------------------------H-P------------------8----------------------18-15-16-18-------|
|---------------P-P-H-H-----------------H--P-------7-8-7-----------H---8---10-------------------------------------|
|-----H-P-P----3-1-0-1-3--S--P-----H---8-10-8--H---------10-------8-10--------------------------------------------|
|----5-6-5-3-------------1--5-3---8-10--------8-10----------8--10-------------------------------------------------|
|--3---------1----------------------------------------------------------------------------------------------------|


              H  H  P  P  H  P
|-15-17-----18-20-22-20-18-20-18-18--|----------------|----------------------------------------------------18-------18---------|
|--------18--------------------------|-esta-----------|-15/16-16-18-16-15-------15/16-15-15-------15-16-18----18-16----16-15~~-|
|------------------------------------|-parte----------|-------------------17-15-------------15-17------------------------------|
|------------------------------------|-es improvisada-|------------------------------------------------------------------------|
|------------------------------------|----------------|------------------------------------------------------------------------|
|------------------------------------|----------------|------------------------------------------------------------------------| 

sigue con el pre-coro y coro

comentarios o peticiones a 
genocide_56@

            
            
Suggest correction
Creating personal tab
Creating personal tab
You can edit any tab online and save it as your Personal.

You can edit, replace or remove any tab part or add personal notes – all changes will be seen only by you.

Personal tabs can be accessed anytime from any device, even offline.
Learn more »
Give kudos to tab author, rate the tab!
1 2 3 4 5
comments
print report bad tab
guest
Wanna post a correction for this tab? Suggest correction