Oops, an error
Loading. Please wait.

Por Amarte Así tab

225 views 1 this week
no commentswrite comment
1 2 3 4 5
3 more votes to show rating
add to favorites
×
Save as Personal and add changes to this tab that will be seen only by you. Learn more ›
×
You can save this tab as Personal to edit and correct it or add notes. All changes will be seen only by you. Learn more »
launch autoscroll
font size
0
reset
how to read this tab
guitar tuner
edit
Autoscroll
slow
fast
+/-
esc
set tempo
stop
Hola, esta es mi primera tablatura, Espero les guste y puedan sacar esta
sencilla melodia para la guitarra electrica.

Solo es el intermedio de lo que hace la guitarra electrica antes de subir
medio tono. La rola la hice a un compas de 2/2 y a un tempo de 65. Es
cosa de tratar de ajustar las notas a la original, ya que una tablatura
casi nunca es exacta en cuanto a tiempo se refiere, y mas si es tan
sencilla como la puse abajo. Creo me salio algo parecida, cualquier
correccion favor de dejarmela saber.


   C#                                     Fm
E|---------1--------|---------1---------|------------4-----|------------|
B|------------------|-------------4--2--|-----1------------|------------|
G|------------------|-------------------|------------------|------------|


  F#                     C#             D#m7                 G#
E|-----------2--1-------|-------------|----------2-1-------|-----8-9-11-|
B|------2----------4----|--2-1--------|------2--------4-2--|-4----------|
G|---1----1----------3--|------3--1---|----1---1-----------|------------|


   C#                                  Fm
E|---13-----------|---13-----11------|-------------16------|------------|
B|----------------|--------------14--|--13-----------------|------------|
G|----------------|------------------|-----------------13--|------------|


  F#              C#                             D#m7              A7
E|-14-13-11-----|-14-11-13--11-9--14---13-11--9-|-11----13-14-16-|--17--|
B|-----------14-|-------------------------------|----------------|------|
G|--------------|-------------------------------|----------------|------|


Esta cancion esta dedicada a la niña mas hermosa del Planeta, con todo
mi amor. Para ti, Cynthia.
Suggest correction
Creating personal tab
Creating personal tab
You can edit any tab online and save it as your Personal.

You can edit, replace or remove any tab part or add personal notes – all changes will be seen only by you.

Personal tabs can be accessed anytime from any device, even offline.
Learn more »
Give kudos to tab author, rate the tab!
1 2 3 4 5
comments
print report bad tab
guest
Wanna post a correction for this tab? Suggest correction