Oops, an error
Loading. Please wait.

No Lloro Por Tí tab

26 views 1 this week
no commentswrite comment
1 2 3 4 5
3 more votes to show rating
add to favorites
×
Save as Personal and add changes to this tab that will be seen only by you. Learn more ›
×
You can save this tab as Personal to edit and correct it or add notes. All changes will be seen only by you. Learn more »
launch autoscroll
font size
0
reset
how to read this tab
guitar tuner
edit
Autoscroll
slow
fast
+/-
esc
set tempo
stop
Una canción que habla del rechazo y después la aceptación
cuando ya no se tiene el mismo interés que antes.

Buen tema del álbum ?Verano Fatal?
Christina y Nacho, unos Grandes!!!

Para que suene lo más parecido a la versión original en cada acorde
"La" hay que levantar el anular (que debe estar pisando la
segunda cuerda) para tocarla al aire y después volverla a pisar para
continuar el arpegio (justo como viene en la tablatura).
A excepción del "La" de media estrofa, ahí no es necesario ya que
el arpegio es corto.

Intro:
     A
e-----------0----------------
B---------2---2-------2-0-2--
G-------2-------2---2-------2      x2
A----------------------------
D-----0-----------0----------
E----------------------------


     A
e-----------0----------------
B---------2---2-------2-0-2--
G-------2-------2---2-------2
A----------------------------
D-----0-----------0----------
E----------------------------
      Nooooo lloro por ti

     D
e-----------2-----------2----
B---------3---3-------3---3--
G-------2-------2---2-------2
A-----0-----------0----------
D----------------------------
E----------------------------
      Nooooo lloro por ti

     A
e-----------0----------------
B---------2---2--------------
G-------2-------2------------
A----------------------------
D-----0----------------------
E----------------------------
      Lloro por las nubes que son?

     Bm
e-----------2----------------
B---------3---3--------------
G-------4-------4------------
A----------------------------
D-----2----------------------
E----------------------------
      ?de un blanco imposible y aquí?

     F#m
e-----------2----------------
B---------2---2--------------
G-------2-------2------------
A----------------------------
D-----4----------------------
E----------------------------
      ?abajo nada es puro todo es?

     E
e-----------0----------------
B---------0---0--------------
G-------1-------1------------
A----------------------------
D-----2----------------------
E----------------------------
      ?feo y tan horrible


(el siguiente puente es opcional, puede ser tocado entre
estrofa y estrofa)

e------------------------
B------------------------
G------------------------
A------------------------
D------------------------
E----0---2---4-----------

Todas las estrofas son iguales. Para el final (después del arpegio
en ?Mi? justo en la palabra ?pimiento?) puedes hacer un rasgueo hacia
abajo así.

     E
e----0-----
B----0-----
G----1-----
A----2-----
D----------
E----------

Comentarios, sugerencias o arreglos mándenlos a liranus_@
Suggest correction
Creating personal tab
Creating personal tab
You can edit any tab online and save it as your Personal.

You can edit, replace or remove any tab part or add personal notes – all changes will be seen only by you.

Personal tabs can be accessed anytime from any device, even offline.
Learn more »
Give kudos to tab author, rate the tab!
1 2 3 4 5
comments
print report bad tab
guest
Wanna post a correction for this tab? Suggest correction