Oops, an error
Loading. Please wait.

Tómame tab

38 views 1 this week
no commentswrite comment
1 2 3 4 5
3 more votes to show rating
add to favorites
×
Save as Personal and add changes to this tab that will be seen only by you. Learn more ›
×
You can save this tab as Personal to edit and correct it or add notes. All changes will be seen only by you. Learn more »
launch autoscroll
font size
0
reset
how to read this tab
guitar tuner
edit
Autoscroll
slow
fast
+/-
esc
set tempo
stop
Bueno esta es una mejora a las versiones anteriores espero les sirva,
suena igual a la original. Nada y que Dios obre grandemente atreves
de esta canción.

NOTA: Debes utilizar capo en el 4 traste
INTRO:
?las notas se tocan varias veces?
GUITARRA 1

00:00           00:03           00:06         00:09????
  A              Esus4          F#m7           D      D9
e-5--------------5--------------5--------------5------5
B-5--------------5--------------5--------------5------5
G-6--------------4--------------6--------------7-x2---6
D-7--------------7--------------4--------------7------7
A-7--------------7--------------4--------------5------5
E-5----------------------------------------------------
* Este es el mismo circulo para toda la
canción en la guitarra acustica

A                       Esus4
      Tómame entre tus brazos
F#m7                        D                    A
      Para que así solo en Ti  Jesús pueda descansar
                   Esus4
 Tómame y en tus manos
F#m7                   D                  A
      Entregaré ese peso que no puedo llevar
     Esus4          F#m       D
 Tómame,       tómameee...

INTERMEDIO

GUITARRA ACUSTICA

// A Esus4 F#m D //


GUITARRA ELECTRICA

e-----10-10-10----9--9--9----7--7--7--------
B-5h7---7--7-------7--7-------7--7----------
G-------------------------------------------
D-------------------------------------------
A--------------7----------7-----------------
E-------------------------------------------


e-----10-10-10----9--9--9----7--7--7----5--5--5----
B-------7--7-------7--7-------7--7-------7--7------
G--------------------------------------------------
D--------------------------------------------------
A--7-----------7----------7----------4-------------
E--------------------------------------------------


A                      Esus4
     Llename con tu Presencia
F#m7                    D                  A
     Llename con lo que Tu MI Dios Eres y Serás
                       Esus4
     Llename con Tus Abrazos
F#m7             D                A
     Llename con Tu Amor y Felicidad
      Esus4     F#m     D
 Llename, Llenamee...


A                   Esus4
  // Tomame tomame Jesús
F#m7                           D
     Llename llename con Tu Espiritu // (Resuena en D9)


PUENTE 2

  A              Esus4          F#m7           D
e-5--------------5--------------5--------------5------
B-5--------------5--------------5--------------5------
G-6--------------4--------------6--------------6------  X2
D-7--------------7--------------4--------------7------
A-7--------------7--------------4--------------5------
E-5---------------------------------------------------


CORO

GUITARRA ELECTRICA DE POTENCIA

  A              Esus4          F#m7           D9
e-------------------------------------------------
B-------------------------------------------------
G-6--------------14-------------10-------------11-
D-7--------------14-------------7--------------11-
A-7--------------12-------------10-------------12-
E-5--------------12-------------9--------------10-


      A         Esus4  F#m7             D9
 //// Tomame Jesús,    Llename con Tu Espiritu ////
      A         Esus4  F#m7       D9
 /////Tooooomameeeee   Lleeeenameeee/////

PUENTE 3
  A              Esus4          F#m7           D9
e-------------------------------------------------
B-------------------------------------------------
G-6--------------14-------------10-------------11-
D-7--------------14-------------7--------------11-
A-7--------------12-------------10-------------12-
E-5--------------12-------------9--------------10-


HECHO POR: JUAN ESTEBAN OCHOA    bendiciones??

SALUDO A LA IGLESIA FILADELFIA C.C. AMOR Y FE EN TUNJA,
Y AL GRUPO DE ALABANZA: NICOLAS, SAMUEL, ALEJA, YENY?

            
            
Suggest correction
Creating personal tab
Creating personal tab
You can edit any tab online and save it as your Personal.

You can edit, replace or remove any tab part or add personal notes – all changes will be seen only by you.

Personal tabs can be accessed anytime from any device, even offline.
Learn more »
Give kudos to tab author, rate the tab!
1 2 3 4 5
comments
print report bad tab
guest
Wanna post a correction for this tab? Suggest correction