Oops, an error
Loading. Please wait.

No Dejaré De Pelear tab

23 views 1 this week
no commentswrite comment
1 2 3 4 5
3 more votes to show rating
add to favorites
×
Save as Personal and add changes to this tab that will be seen only by you. Learn more ›
×
You can save this tab as Personal to edit and correct it or add notes. All changes will be seen only by you. Learn more »
launch autoscroll
font size
0
reset
how to read this tab
guitar tuner
edit
Autoscroll
slow
fast
+/-
esc
set tempo
stop
Intro
(Dsus4-Dm)x4

Dsus4 Dm
        Sabes que puedes puedes pegarme
Dsus4 Dm
        Sabes que puedes humillarme y dejarme mal
A#        A         Dm
  Pero no Dejaré de pelear.

Dsus4 Dm
        Sabes que puedes puedes decirme que no
Dsus4 Dm
        Sabes que siempre puedes causarme algún temor
A#                       A       A7      Dm
  Pero tambien sabes que no Dejaré de pelear


CORO:
Gm               F
Hay veces en que me das miedo,
A#                            A Puente
Hay veces en que te pienso dejar,
Gm                 F
Pero creo que es mucho más fácil
A#                 A        A7
Dejarse ganar Y yo voy a pelear.

SOLO guitarra

Acordes solo harmonica: F-C-Dm-A-A#-A

Verso sin guitarra:
Puedes hacerme creer que no te sirvo
Puedes castigarme y dejarme sin comer
Pero no dejaré de pelear.


Se toca igual que el 1er verso:

Puedes hacerme pasar del cielo al suelo
Y tratar de convencerme que no te siga más
Pero no dejaré de pelear

Coro x2

(Dm-Dsus4-A#-A)x2
F-C-Dm-A-A#-A-Dm
(Dsus4-Dm)x3
Dm

FIN


Dsus4
E---2----
B---2----
G---3----
D---0----
A---x----
E---x----


Solo de guitarra(no es exactamente = pero suena "cercano")

E-----------------------------------------10-10--------------------------
B-----------6-8-10-------11-10------------------13-11-10-11s13up1/2-11-10
G---7-6-7-9--------12-10-------12-10-9-12--------------------------------
D-7----------------------------------------------------------------------
A------------------------------------------------------------------------
E------------------------------------------------------------------------

E----13--12-10---------------------------------------------
B-10---10-----10--10-11-10---------------------------------
G---------------10--------12---10-12-10-9---9-10-----------
D------------------------------------------------12-10-12--
A----------------------------------------------------------
E----------------------------------------------------------


Puente del coro:

E-3-1-0-----
B-------3-2-
G-----------
D-----------
A-----------
E-----------


Es el primer tema que subo, espero sea útil para quien lo busque.
Grande El Cruce!

Tomas Hormazábal-tomandinga@

            
            
Suggest correction
Creating personal tab
Creating personal tab
You can edit any tab online and save it as your Personal.

You can edit, replace or remove any tab part or add personal notes – all changes will be seen only by you.

Personal tabs can be accessed anytime from any device, even offline.
Learn more »
Give kudos to tab author, rate the tab!
1 2 3 4 5
comments
print report bad tab
guest
Wanna post a correction for this tab? Suggest correction