Oops, an error
Loading. Please wait.

La Triste Visión Del Entierro Propio bass

version 1
version 1

Whole song

Interactive

by Crucis
64 views 1 this week
no commentswrite comment
1 2 3 4 5
3 more votes to show rating
add to favorites
×
Save as Personal and add changes to this tab that will be seen only by you. Learn more ›
×
You can save this tab as Personal to edit and correct it or add notes. All changes will be seen only by you. Learn more »
launch autoscroll
font size
0
reset
guitar tuner
edit
Autoscroll
slow
fast
+/-
esc
set tempo
stop
Los guiones marcan el comienzo de cada compas.

0:15
   -         -          -         -             -           -
G|-----------------7------------------7---7---------7-------------------
D|-7--------------------7------------7------7-6-5-------3-4-5---5---5-6-
A|-------7-6-5-------5--------7-6-5-----5-------------5-----------5-----
E|----------------------------------------------------------------------

   -           -                        -                  -
G|----------------7-10-9-7-5------------------------------------7-------
D|-7-----7-------7----------7-6-5-----------------5-5-7-------7---7p5-7-
A|-----7---7-6-5-----------------7-6-5-------5-6-7-7---7-6-5------------
E|------------------------------------7-5-7-8---------------------------

   -           -
G|-----7--------------------------
D|-5-------3-4-5--5--5--5--5--6--6
A|-------5------------------------
E|--------------------------------

0:45                              (2 veces)
  -           -             -           -             -           -
G|------------------7-------------------------7-------------------------------|
D|------7--------7----------------7--------7----------------5-----------5-----|
A|---7----7-6-5----------------7----7-6-5----------------5-----------5--------|
E|5-------------------8-7-6-5-------------------8-7-5-3-------1-2-3------1-2-3|

  -           -             -           -             -           -
G|----------------7-----7-------------------7-----7----------------------------
D|----7-----7---7-----7---7-----7-----7---7-----7---7-----5-----5-----5-----5--
A|--7-----7---5-----5---------7-----7---5-----5---------5-----5-----5-----5---5
E|5-----5-------------------5-----5-------------------3-----3-----3-----3------


G|-9---7---6----------------
D|-7---5---4----------------
A|--------------------------
E|--------------------------

1:37
   -             -                -                -
G|-----7-----7-7-------------------------------------------------
D|-------7-----------11-----11-11-----11-----11-11-----14-------9
A|-5-5-----5-----9-9------9-------8-8------8-------7-7/-----7-7--
E|----------------------9----------------9----------------7------

   -             -                -               -
G|-----7-------7-----------------------------------------------
D|-------7-----------11-----11-11-----11-------11-----9-------9
A|-5-5-----5-5---9-9------9-------8-8------8-8----7-7-----7-7--
E|----------------------9----------------9--------------7------

   -      -         -          -      -      -            -
?Aquí esta mi cuerpo muerto al fin, que es lo que sus mentes esperaban de mi?
G|----------------------------------------------------------------------------
D|--------------------------------------------------------7-7--7-7--7-5-7-5---
A|-5------8-8--8-8--7-7--7--7--5------4------3-3--3-3--3---------------7---7-6
E|----------------------------------------------------------------------------

   -      -         -          -      -      -            -
?todos concurrieron sin hablar, y la ceremonia transcurria igual?
G|----------------------------------------------------------------------------
D|--------------------------------------------------------7-7--7-7--7-5-7-5---
A|-5------8-8--8-8--7-7--7--7--5------4------3-3--3-3--3---------------7---7-6
E|----------------------------------------------------------------------------

   -      -      -      -              -       -     -
?Yo los miraba desde mi angulo mas comodo, pero un angel grito, Seis!?
G|----------------------------------------------------------------------------
D|----------------------3-3-3-3-3-3-------------------------------------------
A|-5------3------1-----------------3-4-5-0-5---3--3--4-4-4-4-4-4-4-4-4-4-4-4-?
E|----------------------------------------------------------------------------

   -             -                -                -
G|-----7-----7-7--------------------------------------------------
D|-------7-----------11-----11-11-----11-----11-11-----14--------9
A|-5-5-----5-----9-9------9-------8-8------8-------7-7/-----7--7--
E|----------------------9----------------9----------------7-------

   -             -               -                -
G|-----7-----7-7-------------------------------------------------
D|-------7-----------11-------11-----11-------11------14-------14
A|-5-5-----5-----9-9------9-9----8-8------8-8-----7-7/----7--7/--
E|----------------------9---------------9---------------7--------

   -      -         -          -      -      -            -
?No quedaba nadie sin llorar, el cordon de plata terminaba triunfal?
G|----------------------------------------------------------------------------
D|--------------------------------------------------------7-7--7-7--7-5-7-5---
A|-5------8-8--8-8--7-7--7--7--5------4------3-3--3-3--3---------------7---7-6
E|----------------------------------------------------------------------------

   -      -         -          -      -      -            -
?cuantos somos ya los heroes olvidados, por la vieja historia de Cain y Abel?
G|----------------------------------------------------------------------------
D|--------------------------------------------------------7-7--7-7--7-5-7-5---
A|-5------8-8--8-8--7-7--7--7--5------4------3-3--3-3--3---------------7---7-6
E|----------------------------------------------------------------------------

   -      -      -      -              -       -     -
?Yo los miraba desde mi angulo mas comodo, pero un angel grito, Seis!?
G|----------------------------------------------------------------------------
D|----------------------3-3-3-3-3-3-------------------------------------------
A|-5------3------1-----------------3-4-5-0-5---3--3--4-4-4-4-4-4-4-4-4-4-4-4-?
E|----------------------------------------------------------------------------

   -           -           -       -           -       -
G|-------------------7|7|7---------------------------------------
D|-------------------------5-----5-3--3--6--6-------4--4---------
A|-5-----5|5|5-5-------------------------------2--2-------4-4-4-0
E|---------------------------------------------------------------

4:01
   -           -           -           -
G|-------7|7|7-------7|7|7-------7|7|7----------------
D|-------------------------5-----------3-3-3-3--------
A|-5-----------5--------------------------------------
E|---------------------------------------------4------

                                 (2 veces)
  -           -             -           -             -           -
G|----------------7-----7-------------------7-----7---------------------------|
D|----7-----7---7-----7---7-----7-----7---7-----7---7-----5-----5-----5----5--|
A|--7-----7---5-----5---------7-----7---5-----5---------5-----5-----5----5---5|
E|5-----5-------------------5-----5-------------------3-----3-----3----3------|

Final
G|-9---7---6--------6/11--------
D|-7---5---4--------------------
A|------------------------------
E|------------------------------


   /: slide up (?arrastrar? hacia adelante)
   p: pull off (ligado hacia atras)
   h: hammer on (ligado)
 x|x: tocar las dos notas consecutivamente rápido por Ej. 7|7
  ? : tocar la nota marcada hasta el proximo cambio de compas


La triste vision del entierro propio (Gustavo Montesano)

Aquí esta mi cuerpo muerto al fin
que es lo que sus mentes
esperaban de mi
todos concurrieron sin hablar
y la ceremonia transcurria igual
Yo los miraba desde mi angulo mas comodo
pero un angel grito, Seis!

No quedaba nadie sin llorar
el cordon de plata terminaba
triunfal
cuantos somos ya los heroes olvidados
por la vieja historia de Cain y Abel
Yo los miraba desde mi angulo mas comodo
pero un angel grito, Seis!

            
            
Suggest correction
Creating personal tab
Creating personal tab
You can edit any tab online and save it as your Personal.

You can edit, replace or remove any tab part or add personal notes – all changes will be seen only by you.

Personal tabs can be accessed anytime from any device, even offline.
Learn more »
Give kudos to tab author, rate the tab!
1 2 3 4 5
comments
print report bad tab
guest
Wanna post a correction for this tab? Suggest correction