Oops, an error
Loading. Please wait.

Andate A Cancún bass

13 views 1 this week
no commentswrite comment
1 2 3 4 5
3 more votes to show rating
add to favorites
×
Save as Personal and add changes to this tab that will be seen only by you. Learn more ›
×
You can save this tab as Personal to edit and correct it or add notes. All changes will be seen only by you. Learn more »
launch autoscroll
font size
0
reset
guitar tuner
edit
Autoscroll
slow
fast
+/-
esc
set tempo
stop
Intro

G:------------
D:-14-14-14--- X2
A:------------
E:------------

G:---------------
D:-14-14-14----13 x3 Y luego d los 3 siempre va....
A:----------14---
E:---------------

G:------------
D:-10-9------- 
A:------6-7---
E:------------

Verso

G:---------------
D:--------------- 
A:-7-7-----7-7---
E:-----7-7------7

G:--------------
D:---9---------- 
A:-7---7---9---- se repite hasta 'pensando n el hecho'
E:-------7---7--

G:--------------
D:-------7-5-4--
A:---6-9-------7
E:-7------------

G:--------------
D:---9----------
A:-7---7---9---- 
E:-------7---7--

Para entrar al coro

G:---------
D:-10-9----
A:------6-7
E:---------

Coro

G:----9------
D:---9------9 se repite hasta que entra el intro 
A:-7------9--
E:------7----

Outro coro

G:---------------
D:-14-14-14----13 x3 
A:----------14---
E:---------------

G:------------
D:-10-9------- 
A:------6-7---
E:------------

Verso
Coro
Intro
Verso
Coro x3
Intro ----> hasta el final d la kncion

Bueno espero ke les guste esta kncion, la verdad 
es ke esta muy buena ponganle bastante feeling !!

VIVA ECUADOR Y LIGA CAMPEON !!!!

Cualquier duda escriban a mi mail ;)

            
            
Suggest correction
Creating personal tab
Creating personal tab
You can edit any tab online and save it as your Personal.

You can edit, replace or remove any tab part or add personal notes – all changes will be seen only by you.

Personal tabs can be accessed anytime from any device, even offline.
Learn more »
Give kudos to tab author, rate the tab!
1 2 3 4 5
comments
print report bad tab
guest
Wanna post a correction for this tab? Suggest correction