Oops, an error
Loading. Please wait.

El Cielo Cayó bass

14 views 3 this week
no commentswrite comment
1 2 3 4 5
3 more votes to show rating
add to favorites
×
Save as Personal and add changes to this tab that will be seen only by you. Learn more ›
×
You can save this tab as Personal to edit and correct it or add notes. All changes will be seen only by you. Learn more »
launch autoscroll
font size
0
reset
guitar tuner
edit
Autoscroll
slow
fast
+/-
esc
set tempo
stop
Esta es la base del bajo de la cancion.
Composicion de Andres Federico Sacoto Arias Santacroce
uno de los mejores Bajistas del Ecuador junto a Ivis Flies de la grupa.
Esta cancion se la dedico a la mujer que llega a mi mente cuando escucho esta cancion
y a mis compañeros de Dollar 15... algun dia llegaremos...

Afinacion Standar E

Intro (x 12)
G|-----------------|
D|-----------------|
A|----5-------3----|
E|--------55-------|

Estrofa

Cuando dijiste que ya.....

G |--------------------------------------------------------|
D |--------------------------------------------------------|
A |----5--------3---5--------3---1--------0---1--------0---|
E |---------5-5----------5-5----------1-1----------1-1-----|
       Dm                        Bb

G |--------------------------------------------------------|
D |--------------------------------------------------------|
A |----3--------1---3--------1---5--------3---5--------3---|
E |---------3-3----------3-3----------5-5----------5-5-----|
       C                         Dm

Coro es igual a la estrofa..

G |--------------------------------------------------------|
D |--------------------------------------------------------|
A |----5--------3---5--------3---1--------0---1--------0---|
E |---------5-5----------5-5----------1-1----------1-1-----|
       Dm                        Bb

G |--------------------------------------------------------|
D |--------------------------------------------------------|
A |----3--------1---3--------1---5--------3---5--------3---|
E |---------3-3----------3-3----------5-5----------5-5-----|
       C                         Dm

en la parte de 'Pido permiso' es como el intro.. en D

G |----------------|
D |----------------|
A |----5-------3---|
E |--------55------|

hasta    ' Todo es verdad nada es mentira' en que vuelve a la linea normal...

durante los solos de guitarra.. suena bien...
pero las notas pegadas hay que tocarlas bien rapidas...


G |-7--9-10-9-7-------7--9-10-9-7----12--7--9-10-9-7-------7--7--5--7-|
D |-------------10-8--------------10-----------------10-8-------------|
A |-------------------------------------------------------------------|
E |-------------------------------------------------------------------|

eso es todo deben escucharla bien para meterle el feeling... suerte a todos
cualquier duda a ian_thorpe01@

Viva el Ecuador!!!!
Viva Guayaquil!!!!
Viva Quito!!!!

            
            
Suggest correction
Creating personal tab
Creating personal tab
You can edit any tab online and save it as your Personal.

You can edit, replace or remove any tab part or add personal notes – all changes will be seen only by you.

Personal tabs can be accessed anytime from any device, even offline.
Learn more »
Give kudos to tab author, rate the tab!
1 2 3 4 5
comments
print report bad tab
guest
Wanna post a correction for this tab? Suggest correction