Oops, an error
Loading. Please wait.

Yendo A La Casa De Damián bass

version 2
version 2

Whole song

Interactive

148 views 1 this week
no commentswrite comment
1 2 3 4 5
3 more votes to show rating
add to favorites
×
Save as Personal and add changes to this tab that will be seen only by you. Learn more ›
×
You can save this tab as Personal to edit and correct it or add notes. All changes will be seen only by you. Learn more »
launch autoscroll
font size
0
reset
guitar tuner
edit
Autoscroll
slow
fast
+/-
esc
set tempo
stop
HoLA GeNTE Aki lES dejO El TAb DE "Yendo A La Casa De Damian"

PoZuZo CiTY!!!

Intro:

G----------------------------------|
D----------------------------------|
A---------8----8----7----7----7----|
E----5-----------------------------|

Y en mi casa del barrio marconi...

G----------------------------------------------------------------------|
D---------------------------------------------------------5------------|
A-7-7-7-7------5/7------6-7-8----8/12-8----10-8-7-----57---87---57-----|
E---------5--------5---------------------------------7---------7----87-|
x2 desde el 5, los 7s no se repiten


Coro:

G-------------------------------------|
D-------------669--------------669----|
A-----88887777---------88887777-------|
E-5555-------------5555------------5--|x2

Por que me cuesta tantoo llegar:

G---------------------------------------------------------------|
D--------------------------------------------------5------------|
A-------5/7------6-7-8----8/12-8----10-8-7-----57---87---57-----|
E--5--------5---------------------------------7---------7----87-|x3

Coro:

G-------------------------------------|
D-------------669--------------669----|
A-----88887777---------88887777-------|
E-5555-------------5555------------5--|x2

Era happy hour en el cavarete

G-------------------------------------|
D-------------------------------------|
A----8--------8--------7----7----7----|
E-------------------------------------|

De un Master que tocaba jazz...

G----------------------------------------------------------------------|
D---------------------------------------------------------5------------|
A-7-7-7-7------5/7------6-7-8----8/12-8----10-8-7-----57---87---57-----|
E---------5--------5---------------------------------7---------7----87-|
x2 desde el 5, los 7s no se repiten

Coro:

G----------------------------------- -|
D-------------669--------------669-- -|
A-----88887777---------88887777----- -|
E-5555-------------5555-------------5-|x4

En ToDoS loS CorOs El UlTIMo 5 se Usa pARA teRmInAr, SiEmPRE teRmiNAn En
5 De E aSi Y vAn dEspuES dE LOS 9 vAn oTrA veZ lOS 5s SeGuiDos y En ULTiMO
PeDAZo de COrO Va El 5 FiNAl.
Suggest correction
Creating personal tab
Creating personal tab
You can edit any tab online and save it as your Personal.

You can edit, replace or remove any tab part or add personal notes – all changes will be seen only by you.

Personal tabs can be accessed anytime from any device, even offline.
Learn more »
Give kudos to tab author, rate the tab!
1 2 3 4 5
comments
print report bad tab
guest
Wanna post a correction for this tab? Suggest correction