Oops, an error
Loading. Please wait.

Padre Nuestro tab

119 views 1 this week
no commentswrite comment
1 2 3 4 5
3 more votes to show rating
add to favorites
×
Save as Personal and add changes to this tab that will be seen only by you. Learn more ›
×
You can save this tab as Personal to edit and correct it or add notes. All changes will be seen only by you. Learn more »
launch autoscroll
font size
0
reset
how to read this tab
guitar tuner
edit
Autoscroll
slow
fast
+/-
esc
set tempo
stop
Hola amigos aqui les presento el padre nuestro en Lam
Primero recuerda afinar bien el cuatro.
1ra - 2da - 3ra - 4ta - 5ta
SOL-G RE-D  LA-A  MI-E  SI-B


                                                                
G|-----------------------------------------------------------------|
D|-----------2-2-0----------0-0------2-2-5-5-7-7-5------2-2-5-5-7--|
A|---0-0-3-3------------2-2------3-3----------------3-3------------|
E|------------------3-3--------------------------------------------|
B|-----------------------------------------------------------------|
                                                                   

                                                            
                                                               
G|-----------------------------------------------------------------|
D|-7-5------7-7-9-10-10-10-9-7-5-7-5-2--------5--------------------|
A|------3-3-----------------------------3-3-3---2-3-0--------------|
E|-----------------------------------------------------------------|
B|-----------------------------------------------------------------|
                                                                   
 

(LA-)
Padre nuestro,  Tú que estás...
En los que aman de verdad,
Que el reino que se nos prometió
Llegue pronto a nuestro corazón
El amor que tu hijo nos dejo, 
el amor, habite en nosotros.

(Se reza el Padre Nuestro)

Y en el pan de la unidad, 
Cristo danos tu la paz 
y olvídate de nuestro mal
si olvidamos el de los demás
no permitas que caigamos en tentación... 
¡Oh! Señor, y ten piedad del mundo.

            
            
Suggest correction
Creating personal tab
Creating personal tab
You can edit any tab online and save it as your Personal.

You can edit, replace or remove any tab part or add personal notes – all changes will be seen only by you.

Personal tabs can be accessed anytime from any device, even offline.
Learn more »
Give kudos to tab author, rate the tab!
1 2 3 4 5
comments
print report bad tab
guest
Wanna post a correction for this tab? Suggest correction