Oops, an error
Loading. Please wait.

Así Como Así tab

version 1
version 1

Whole song

10 views 1 this week
no commentswrite comment
1 2 3 4 5
3 more votes to show rating
add to favorites
×
Save as Personal and add changes to this tab that will be seen only by you. Learn more ›
×
You can save this tab as Personal to edit and correct it or add notes. All changes will be seen only by you. Learn more »
launch autoscroll
font size
0
reset
how to read this tab
guitar tuner
edit
Autoscroll
slow
fast
+/-
esc
set tempo
stop
Sin duda una bella canción escrita por mi buen amigo Ñil,
ojala les guste, esta es la mas correcta y el mismo ÑIL
le dio el visto bueno a la tablatura pronto subire mas
TABS con ayuda de el.

Comenten porfavor y no olviden visitarnos:


Quiero aclarar que si se toca en Acordes
C-Am-F-G suena igual porque esta en los mismas notas
solo que con la toca con cejillas porque usan electrica.


Notas de la canción

Ñil me dijo que asi la toca la Guitarra 1
(Am5 viene aqui en la cuerda como Am Version 2)

    C5   Am5  F    G
e|--3----X----1----3------|
B|--3----X----1----3------|
G|--5----5----2----4------|
D|--5----5----3----5------|
A|--3----0----3----5------|
E|--3----0----1----3------|

Asi la pueden tocar ( comparen ambas formas en la nota A
y notaran que suenan exactamente igual porque las cuerdas se
tocan en los mismos tonos solo diferente traste y diferente cuerda)

    C5   Am5  F    G
e|--3----5----1----3------|
B|--3----5----1----3------|
G|--5----5----2----4------|
D|--5----7----3----5------|
A|--3----7----3----5------|
E|--3----5----1----3------|

Bien ahora si, comenzamos con la guitarra 2
Entras al mismo tiempo que la guitarra 1 en C5
y se toca en las dos primeras estrofas.

    C5                        Am
|-------------------------|-------------------------|
|-------------------------|-------------------------|
|--------10-----10--------|--------10-----10--------|
|------9------9-----------|------9------9-----------|
|----8------8------8------|----8------8------8------|
|-------------------------|-------------------------|

   FA                         G
|-------------------------|-------------------------|
|-------------------------|-------------------------|
|-------------------------|-------------------------|
|-------------------------|-------------------------|
|--10-10-10--9-9--7-7--5--|--10-10-10--9-9--7-7--5--|
|-------------------------|-------------------------|


C5
Solo Fue
Am
O lo soñé
F                              G
En tus ojos vi el reflejo del ayer

C5
Ahora vienes a buscarme
Am
No soy el mismo de antes
F                        G
No tengo más amor que darte

C5
He cambiado desde entonces
Am
Y casi logro olvidarte
F
Sé que fuiste un sueño
G
Pero aun te quiero

C5
Y así como así

Te olvidaste de mí
Am
Y si no funciono sé que
          F
no fui yo el culpable
G
de nuestro adiós


C5
Si yo todo te di nada recibí
Am
Esperaba de ti
                      F
Algo más que un lo siento
G
No,  no te quiero

C5
No pienses q va a funcionar
Am
Desde el principio estuvo mal
F
Es imposible continuar
G
Lo que empezó por el final

C5
Si quieres tienes q esperar
     Am
Toda una vida y mucho más
          F
Por todo el daño que me hiciste
G
Por los te quiero que fingiste
C5    Am
Ayer, Ayer...
F                G
Oh Uh, Oh Uh, Oh Uh

C5
Y ahora vienes a buscarme
Am
No soy el mismo de antes
F                       G
Yo tengo más amor que darle

C5
Yo he cambiado desde entonces
Am
Ya logre olvidarte
F
Sé que fuiste un sueño
G                 C5
Pero no te quiero

Esto tocara la segunda guitarra a partir de:
"Y ahora vienes a buscarme..."

Entras al mismo tiempo que la guitarra 1 en C


    C5                        Am
|-------------------------|-------------------------|
|-------------------------|-------------------------|
|--------10-----10--------|--------10-----10--------|
|------9------9-----------|------9------9-----------|
|----8------8------8------|----8------8------8------|
|-------------------------|-------------------------|

   FA                         G
|-------------------------|-------------------------|
|-------------------------|-------------------------|
|-------------------------|-------------------------|
|-------------------------|-------------------------|
|--10-10-10--9-9--7-7--5--|--10-10-10--9-9--7-7--5--|
|-------------------------|-------------------------|


    C5                        Am
|-------------------------|-------------------------|
|-------------------------|-------------------------|
|--------10-----10--------|--------10-----10--------|
|------9------9-----------|------9------9-----------|
|----8------8------8------|----8------8------8------|
|-------------------------|-------------------------|

   FA                       G
|--------------------------------------------------
|--------------------------------------------------
|--------------------------------------------------
|--------------------------------------------------
|--10-10-10--9-9--7-7--5----10---------------------
|--------------------------------------------------

Esto lo tocas al final de la cancion justo sobre nota que es C:

   C5
|-------------------------
|-------------------------
|--10---------------------
|--9----------------------
|--8----------------------
|-------------------------


Cualquier duda, sugerencia o comentario: quike_ft@

            
            
Suggest correction
Creating personal tab
Creating personal tab
You can edit any tab online and save it as your Personal.

You can edit, replace or remove any tab part or add personal notes – all changes will be seen only by you.

Personal tabs can be accessed anytime from any device, even offline.
Learn more »
Give kudos to tab author, rate the tab!
1 2 3 4 5
comments
print report bad tab
guest
Wanna post a correction for this tab? Suggest correction