Oops, an error
Loading. Please wait.

Así Como Así tab

version 3
version 3

Whole song

10 views 1 this week
no commentswrite comment
1 2 3 4 5
3 more votes to show rating
add to favorites
×
Save as Personal and add changes to this tab that will be seen only by you. Learn more ›
×
You can save this tab as Personal to edit and correct it or add notes. All changes will be seen only by you. Learn more »
launch autoscroll
font size
0
reset
how to read this tab
guitar tuner
edit
Autoscroll
slow
fast
+/-
esc
set tempo
stop
Hola aquí denuevo mandando esta cancion que es bien linda ps se la decidido
a mis amigas de la universidad Alas Peruanas y especialmente a ti
Nataly....


Notas de la canción

    C5   F    Fm   G  A5/C9  C    C9
e|--3----1----1----3----3----3----3------|
B|--3----1----1----3----3----3----3------|
G|--5----2----1----4----2----2----0------|
D|--5----3----3----5----2----0----2------|
A|--3----3----3----5----0----1----3------|
E|--3----1----1----3---------0-----------|

1era Guitarra (Punteos - Arpegios)
2da Guitarra  (Rasgeos)


Intro
            C5                      A5/C9

e|--3-----3-----3-----3--|--3-----3-----3-----3------|
B|------3-----3-----3----|------3-----3-----3--------|
G|----5-----5-----5------|----5-----5-----5----------|
D|-----------------------|---------------------------|
A|-----------------------|---------------------------|
E|-----------------------|---------------------------|

      F        Fm    G

e|--1-1-1-0-0--------1-1-1-0-0-----------------|
B|------------3-3-1------------3-3-1-----------|
G|---------------------------------------------|
D|---------------------------------------------|
A|---------------------------------------------|
E|---------------------------------------------|


    C9                      A5/C9

e|--3-----3-----3-----3--|--3-----3-----3-----3------|
B|------3-----3-----3----|------3-----3-----3--------|
G|----5-----5-----5------|----5-----5-----5----------|
D|-----------------------|---------------------------|
A|-----------------------|---------------------------|
E|-----------------------|---------------------------|
    Solo fue                o lo soñé


    F         Fm       G

e|--1-1-1-0-0----------1-1-1-0-0-----------------|
B|------------3-3-1--------------3-3-1-----------|
G|-----------------------------------------------|
D|-----------------------------------------------|
A|-----------------------------------------------|
E|-----------------------------------------------|

   en tus ojos vi el reflejo del ayer


    C9                        A5/C9

e|--3-----3-----3-----3--|----3-----3-----3-----3------|
B|------3-----3-----3----|--------3-----3-----3--------|
G|----5-----5-----5------|------5-----5-----5----------|
D|-----------------------|-----------------------------|
A|-----------------------|-----------------------------|
E|-----------------------|-----------------------------|
   Ahora vienes a buscarme    no soy el mismo de antes


    F            Fm
e|--1-1-1-0-0----1------------|
B|---------------1------------|
G|---------------1------------|
D|----------------------------|
A|----------------------------|
E|----------------------------|

    no tengo más amor que darte


C9
He cambiado desde entonces

A5/C9
y casi logro olvidarte

F
sé que fuiste un sueño

Fm
pero aun te quiero


C9
Y así como así  te olvidaste de mí

A5/C9                                   F
y si no funciono sé que no fui yo el culpable

    G
de nuestro adiós


C9
Si yo todo te di nada recibí

A5/C9
esperaba de ti

                      F
algo más que un lo siento


     Fm
no,  no te quiero


              C
No pienses q va a funcionar

              C9
desde el principio estuvo mal

        F
es imposible continuar

          G
lo que empezó por el final


           C
Si quieres tienes q esperar

        C9
toda una vida y mucho más

          F
por todo el daño que me hiciste

        G
por los te quiero que fingiste

C         C9
Ayeeeer, Ayeeeer... Oh uh, Oh uh,

F                G
Oh uh, Oh uh, Oh uh ...stop


    C9                        A5/C9

e|--3-----3-----3-----3--|----3-----3-----3-----3------|
B|------3-----3-----3----|--------3-----3-----3--------|
G|----5-----5-----5------|------5-----5-----5----------|
D|-----------------------|-----------------------------|
A|-----------------------|-----------------------------|
E|-----------------------|-----------------------------|
   Ahora vienes a buscarme    no soy el mismo de antes


    F        Fm         G

e|--1-1-1-0-0-----------1-1-1-0-0-----------------|
B|------------3-3-1---------------3-3-1-----------|
G|------------------------------------------------|
D|------------------------------------------------|
A|------------------------------------------------|
E|------------------------------------------------|
    yo tengo más amooooor que darle


    C9                              A5/C9

e|--3-----3-----3-----3--------|----3-----3-----3-----3------|
B|------3-----3-----3----------|--------3-----3-----3--------|
G|----5-----5-----5------------|------5-----5-----5----------|
D|-----------------------------|-----------------------------|
A|-----------------------------|-----------------------------|
E|-----------------------------|-----------------------------|
   Yo he cambiado desde entonces    ya logre olvidarte


    F                        Fm                     C5

e|--1-1-1-0-0----------------1----------------------3-------|
B|------------3-3-1----------1----------------------3-------|
G|---------------------------1----------------------5-------|
D|---------------------------3----------------------5-------|
A|---------------------------3----------------------3-------|
E|---------------------------1----------------------3-------|
   sé que fuiste un sueño    pero no te quiero.....


Cualquier duda o comentario me lo hacen llegar mi msn es
tito_acuario_14@ o toti_cakime_14@

            
            
Suggest correction
Creating personal tab
Creating personal tab
You can edit any tab online and save it as your Personal.

You can edit, replace or remove any tab part or add personal notes – all changes will be seen only by you.

Personal tabs can be accessed anytime from any device, even offline.
Learn more »
Give kudos to tab author, rate the tab!
1 2 3 4 5
comments
print report bad tab
guest
Wanna post a correction for this tab? Suggest correction