Oops, an error
Loading. Please wait.

Eres Tú tab

8 views 1 this week
no commentswrite comment
1 2 3 4 5
3 more votes to show rating
add to favorites
×
Save as Personal and add changes to this tab that will be seen only by you. Learn more ›
×
You can save this tab as Personal to edit and correct it or add notes. All changes will be seen only by you. Learn more »
launch autoscroll
font size
0
reset
how to read this tab
guitar tuner
edit
Autoscroll
slow
fast
+/-
esc
set tempo
stop
E|------------------------------------------|
B|------------------------------------------|
G|-9s11-9---8-9-11-9---8-9-9s12---1211-9-8--|
D|------------------------------------------|
A|------------------------------------------|
E|------------------------------------------|

E|-----------------------------------------------|
B|-----------------------------------------------|
G|-9s11-9---8-9-11-9---8-9-9s12---12-11--9-7-6-7-|
D|-----------------------------------------------|
A|-----------------------------------------------|
E|-----------------------------------------------|

D5                              A5
Mira ya no se que hacer con este sentimiento
B5           A5
que no puedo contener
D5              A5
cada vez que veo crece mas y mas
B5         G5
y no puedo soportar


D5          A5         B5         A5
Dime si aquella ocasión cuando me dejaste
D5              A5
no eh dejado de pensar en ti
B5               G5
en ningún instante

CORO:
G5                 A5          B5
y no puedo aguantar otro día mas
     A5                G5
si no estas junto a mi
          A5
ya no se que hacer
       B5             A5
me estoy muriendo por ti.


(Cuidado con el ritmo en esta parte)
E|---------------------------------------------|
B|---------------------------------------------|
G|---------------------------------------------| X2
D|-55-55--555-77-77--777-99-99--999-77-77--777-|
A|-55-55--555-77-77--777-99-99--999-77-77--777-|
E|-33-33--333-55-55--555-77-77--777-55-55--555-|

E|------------------|
B|------------------|
G|------------------|
D|---7~~---5-4------|
A|-5-----------7-5--|
E|------------------|

D5              A5              B5
Ya te dije todo lo siento por ti
A5           D5
Y tu también por mi
A5                B5                G5
pero no me puedes ver como un amigo mas


CORO:
G5                 A5          B5
y no puedo aguantar otro día mas
     A5                G5
si no estas junto a mi
          A5
ya no se que hacer
       B5             A5
me estoy muriendo por ti.

E|------------------------------------------------|
B|------------------------------------------------|
G|------------------------------------------------| X2
D|-55~55~5555--77~77~7777--99~99~9999--77~77~7777-|
A|-55~55~5555--77~77~7777--99~99~9999--77~77~7777-|
E|-33~33~3333--55~55~5555--77~77~7777--55~55~5555-|

SOLO:
E|------------------------------------------------------------|
B|------------------------------------------------------------|
G|------------10-14-12--10--12-10------------------9-10-12-10-|
D|-12s14-12v----------------------12v--------12-14------------|
A|-------------------------------------12-14------------------|
E|------------------------------------------------------------|

E|------------------------------------------------------------|
B|--------------------------------15v-----------15s17--15v----|
G|------------10-14-12--10--12-10-------14---16---------------|
D|-12s14-12v--------------------------------------------------|
A|------------------------------------------------------------|
E|------------------------------------------------------------|

D5                         A5
Eres tu quien me hace sonreír
     B5        A5              D5
eres tu quien me hace muy feliz
         A5         B5
eres todo mi mundo
G5                D5 ~~
eres todo para mi


ACORDES:
E|----X-----X-----X-----X-----|
B|----X-----X-----X-----X-----| s = slide
G|----7-----X-----X-----X-----| v = vibrato
D|----7-----7-----5-----9-----| ~ = let ring
A|----5-----7-----5-----9-----|
E|----X-----5-----3-----7-----|
      D5    A5    G5    B5

            
            
Suggest correction
Creating personal tab
Creating personal tab
You can edit any tab online and save it as your Personal.

You can edit, replace or remove any tab part or add personal notes – all changes will be seen only by you.

Personal tabs can be accessed anytime from any device, even offline.
Learn more »
Give kudos to tab author, rate the tab!
1 2 3 4 5
comments
print report bad tab
guest
Wanna post a correction for this tab? Suggest correction