Oops, an error
Loading. Please wait.

Si No Estás tab

8 views 1 this week
no commentswrite comment
1 2 3 4 5
3 more votes to show rating
add to favorites
×
Save as Personal and add changes to this tab that will be seen only by you. Learn more ›
×
You can save this tab as Personal to edit and correct it or add notes. All changes will be seen only by you. Learn more »
launch autoscroll
font size
0
reset
how to read this tab
guitar tuner
edit
Autoscroll
slow
fast
+/-
esc
set tempo
stop
olas gente...ak les traigo otra buena kncion de cuatro y medio...
es brabaza!!! espero ke este correcta y les guste:::: mA®!ø

1----------------------------------------------------0--
2---0---1-1---1-0----3---1-1---3-1----1---3-3---1-3-----
3-------------------------------------------------------
4-------------------------------------------------------
5-----------------------------------0---0-----0---------
6-3---3-----3------2---2-----2--------------------------

G5           D5
 Como puede ser
A5           C5
 No me imagine
G5                D5
 Que ahora tú te vas
A5          C5
 No regresaras

1---------------------------------------------------------------
2--8/10-8----------------------10/12-10---------13-12-10-8-8-10-
3----------9-11-12-14-12-11-12----------9-12-14-----------------

1------------------------------------------
2-----------12-10-8--------10-8------------
3-7-9-12-14---------11-9-7------7-9-7--12--

G5           D5
 Es como cruzar
A5
 El desierto
          C5
 Sin un trago de agua
G5            D5 A5    C5
 Será como morir  de pie

          G5 D5
 Si no estas
          A5 C5
 Si no estas

G5             D5
 Los días sin ti
A5             C5
 Ya no serán igual
G5            D5
 Solo faltas tu
A5                     C5
 Para que todo sea normal

         G5  D5
 Si no estas
         A5  C5
 Si no estas


G5           D5
 Es como cruzar
A5
 El desierto
          C5
 Sin un trago de agua
G5            D5 A5    C5
 Será como morir  de pie

         G5  D5
 Si no estas
         A5  C5
 Si no estas

         G5  D5
 Si no estas
         A5  C5
 Si no estas

 acordes::::

    G5    D5    A5    C5
 1-----|-----|-----|-----
 2-----|-----|-----|-----
 3-----|--7--|-----|--5--
 4--5--|--7--|--7--|--5--
 5--5--|--5--|--7--|--3--
 6--3--|-----|--5--|-----

te amo 

            
            
Suggest correction
Creating personal tab
Creating personal tab
You can edit any tab online and save it as your Personal.

You can edit, replace or remove any tab part or add personal notes – all changes will be seen only by you.

Personal tabs can be accessed anytime from any device, even offline.
Learn more »
Give kudos to tab author, rate the tab!
1 2 3 4 5
comments
print report bad tab
guest
Wanna post a correction for this tab? Suggest correction