Oops, an error
Loading. Please wait.

Mátame Antes bass

version 1
version 1

Whole song

Interactive

by La Cuca
265 views 1 this week
no commentswrite comment
1 2 3 4 5
3 more votes to show rating
add to favorites
×
Save as Personal and add changes to this tab that will be seen only by you. Learn more ›
×
You can save this tab as Personal to edit and correct it or add notes. All changes will be seen only by you. Learn more »
launch autoscroll
font size
0
reset
guitar tuner
edit
Autoscroll
slow
fast
+/-
esc
set tempo
stop
ESTA ROLA ME PARECE QUE ES UNA DE LAS MEJORES DEL NUEVO DISCO DE LA CUCA
CHEKENLA.......


(intro)
COMENZAMOS ACOMPAÑANDO EL INTRO DE GUITARRA TOCANDO SOLO 3 NOTAS
ESTAS SE REPITEN CUATRO VECES.
G-----------
D-----------
A--4--------
E----5-4----

QUE ES LO QUE...

G-----------------------------------------------------------------
D-----------------------------------------------------------------
A--4-444----------4-444----------4-444----------4-444----3476434--
E-------544-444444-----544-444444-----544-444444-----54-4---------

QUIERO PEDIRTE UN FAVOOR........

G---------------------------------------
D---------------------------------------
A-4-444444---------4-444----------------
E---------5-5555555-----54-4444444------

MATAME ANTES......

NO ME RESIGNO A LA IDEA.......

NO LO QUIERO IMAGINAAAAR....

MATAME ANTES.........

(REQUINTO)

G---------1-----------------------------1----------------------
D----22-1---121---22-4-------------22-1---121---22-4-----------
A--4------------4------4-444444--4------------4------4-444444--
E--------------------------------------------------------------

(ACOMPAÑANDO EL REQUINTO DE GUITARRA)

G--------------------------------------------------------------------------
D--------------------------------------------------------------------------
A--4-444-------------4-444-------------4-444-------------4-444-------------
E--------5-44-444444-------5-44-444444-------5-44-444444-------5-44-444444-

QUE ES LO QUE TIENES EN LAS MANOS......

MATAME ANTES.........


ESTA ROOOOLA ES PARA MY AMIGO EL KEKO Y PARA LA MALINCHE.

SI TIENES DUDAS O SUGRENCIAS ESCRIBEME A ALDARCKLACRI@

            
            
Suggest correction
Creating personal tab
Creating personal tab
You can edit any tab online and save it as your Personal.

You can edit, replace or remove any tab part or add personal notes – all changes will be seen only by you.

Personal tabs can be accessed anytime from any device, even offline.
Learn more »
Give kudos to tab author, rate the tab!
1 2 3 4 5
comments
print report bad tab
guest
Wanna post a correction for this tab? Suggest correction