Oops, an error
Loading. Please wait.

Sólo Por Tí tab

13 views 3 this week
no commentswrite comment
1 2 3 4 5
3 more votes to show rating
add to favorites
×
Save as Personal and add changes to this tab that will be seen only by you. Learn more ›
×
You can save this tab as Personal to edit and correct it or add notes. All changes will be seen only by you. Learn more »
launch autoscroll
font size
0
reset
how to read this tab
guitar tuner
edit
Autoscroll
slow
fast
+/-
esc
set tempo
stop
____ acordes ____________
|                       |
| C:      032010        |
| Am:     002210        |
| F:      133211        |
| Cmaj7:  032000        |
| G:      355433        |
| Em:     022000        |
|_______________________|


[intro (x2)]:
    C               Am              Em              G
E-||---------------|---------------|---------------|---------------|
B-||----1-----1---1|----1-----1---1|----0-----0---0|----0-----0---0|
G-||--0-----0---0--|--2-----2---2--|--0-----0---0--|--0-----0---0--|
D-||---------------|---------------|---------------|---------------|
A-||3-----3--------|0-----0--------|2-----2--------|2-----2--------|
E-||---------------|---------------|---------------|---------------|


C                 Am                      Em     G
  Para que no te vayas, para que hoy te quedes
C                 Am                   Em     G         E-||0------...
  Saque bandera blanca, para volver a verte             B-||--3----...
F                   G *------------------------------>  G-||----0--...
  Que todos tus fantasmas
C                   Am *----------------------------->  B-||--0-3--...
  deambulan por la casa                                 G-||2------...
F                    G                 C
  Y sé que no es bastante pedirles perdón

(C)              Am                     Em     G
  A veces voy ausente perdido entre la gente
C                    Am                   Em     G
  No suelo escuchar mucho tus cosas importantes
F                G
  Cuando me necesitas,
C                    Am
  suelo estar en la luna
F                 G
  Pero eso se acabó

          C            Cmaj7
Sólo por ti, sólo por mí
            F                    G
Sólo por nosotros, sólo por los dos
         Am                         G F
Amanece tarde, quédate un instante
       G                  C
que quiero dormir con tu voz.


[intro]


C                  Am                   Em     G
  Prometo ser el chico del que te enamoraste
C                   Am                     Em     G
  Loquito por tus huesos, que nunca llega tarde
F                 G
  Los años han pasado
C                Am
  y yo te sigo amando
F              G
  y quiero volver

          C            Cmaj7
Sólo por ti, sólo por mí
            F                    G
Sólo por nosotros, sólo por los dos
         Am
Amanece tarde, quédate un instante
           F            G
quiero dormirme con tu voz.

          C            Cmaj7
Sólo por ti, sólo por mí
            F                    G
Sólo por nosotros, sólo por los dos
         Am
Amanece tarde, quédate un instante...


[solo]:
    F                  G          C
E-||------------------|----------|-------------------|--------------------|
B-||------------------|----------|-------------------|--------------------|
G-||-----------------9h10---9----|9--12-12-------9-9-|9--12-12-------9---9|
D-||9-10-9-10-9-10-9--|----------|---------12-12-----|---------12-12---12-|
A-||------------------|----------|-------------------|--------------------|
E-||------------------|----------|-------------------|--------------------|

    F                  G                  C
E-||------------------|------------------|-------------------|
B-||------------------|------------------|-------------------|
G-||9h10--------9-10h9|------------------|-------------------|
D-||------------------|12-10-10-9-9-10-12|10-----------------|
A-||------------------|------------------|-------------------|
E-||------------------|------------------|-------------------|


[intro]


C                 Am                      Em     G
  Para que no te vayas, para que hoy te quedes
C                 Am                   Em     G
  Saque bandera blanca, para volver a verte
F               G
  No pude resistirlo
C                 Am
  estar sin tu cariño
F                 G                     Am
  y vuelvas a pensar que soy algo especial

(Am)      F   G


          C            Cmaj7
Sólo por ti, sólo por mí
            F                    G
Sólo por nosotros, sólo por los dos
         Am
Amanece tarde, quédate un instante
           F            G
quiero dormirme con tu voz.

          C            Cmaj7
Sólo por ti, sólo por mí
            F                    G
Sólo por nosotros, sólo por los dos
         Am
Amanece tarde, quédate un instante
           F            G
quiero dormirme con tu voz.

          C     Cmaj7
Sólo por ti...

F    G

Am

G F


###------------------------------###
### Tablatura de: Enrique Moraño ###
### Sevilla [España]    OCT-2010 ###
###      emorano@     ###
###------------------------------###
Suggest correction
Creating personal tab
Creating personal tab
You can edit any tab online and save it as your Personal.

You can edit, replace or remove any tab part or add personal notes – all changes will be seen only by you.

Personal tabs can be accessed anytime from any device, even offline.
Learn more »
Give kudos to tab author, rate the tab!
1 2 3 4 5
comments
print report bad tab
guest
Wanna post a correction for this tab? Suggest correction